Cake - Short Skirt Long Jacket Chords & Tabs

 

Short Skirt Long Jacket Chords & Tabs

Cake Chords & Tabs

Version: 2 Type: Bass Tab 0 ratings
1 star 2 stars 3 stars 4 stars 5 stars
comments

Short Skirt Long Jacket Bass Tab

My first tab... yay!

Cake - Short Skirt Long Jacket
Tabbed by: gone

Intro/Verse:
G------------------------------| 5x
D------------------------------|
A--5--3-5-3-5--3-5-3-----------|
E---------------------5-1-3-5--|


Pre-Pre-Chorus:
G-----------------------| 1x
D-----------------------|
A--5--3--3--------0--0--|
E-----------1--3--------|

Pre-Chorus:
G---------------------------| repeat between *'s 3x
D-----*------------------*--|
A--5--*----------3--5-5--*--|
E--------1--3-3-------------|
[ Tab from: http://www.guitartabs.cc/tabs/c/cake/short_skirt_long_jacket_btab_ver_2.html ]
G----------------------|
D----------------------|
A----------------------|
E--1--1-3-1-3-1-3-1-5--|


Chorus:
G-------------------------| repeat between *'s 3x
D--*----------------*-----|
A--*----------------*-----|
E----5-5--3-5-3--5-----5--|

Bridge:
G-------------------------------| 5x
D-------------------------------|
A--5-5--3-5-3----------------5--|
E--------------3-3--3--1-3-1----|

Outro:
G------------------------------| 2x
D------------------------------|
A--5--3-5-3-5--3-5-3-----------|
E---------------------5-1-3-5--|
Comments