Cake - Short Skirt Andf Long Jacket Chords & Tabs

 

Short Skirt Andf Long Jacket Chords & Tabs

Cake Chords & Tabs

Version: 1 Type: Bass Tab 0 ratings
1 star 2 stars 3 stars 4 stars 5 stars
comments

Short Skirt Andf Long Jacket Bass Tab

Artist: Cake
Song: Short skirt & long jacket
tabbed by: Pomogh

h= hammer on

Verse 1
G|---------------------------------|
D|---------------------------------|
A|-5-----3h5h3h5-----3-5-3-0-----0-|
E|---------------------------1-3---|
[ Tab from: http://www.guitartabs.cc/tabs/c/cake/short_skirt_andf_long_jacket_btab.html ]
Verse 2
G|--------------------------|
D|--------------------------|
A|-5-----3-----5------------|
E|----------------2-3-4-5---|

Chorus
G|-------------------|
D|-------------------|
A|-5-----0---------0-|
E|----------3-3------|

"Na..na..na.." part
G|----------------------------|
D|----------------------------|
A|-5-5-3h5h3-0--------------3-|
E|--------------3-3-1h3h1h3---|

Viva for Cake!
Comments