Cake - Sheep Go To Heaven Chords & Tabs

 

Sheep Go To Heaven Chords & Tabs

Cake Chords & Tabs

Version: 1 Type: Tab 0 ratings
1 star 2 stars 3 stars 4 stars 5 stars
comments

Sheep Go To Heaven Tab

   
song: Sheep Go To Heaven

artist: Cake

tab: key:
|---------------------|
|---------------------|
*repeat these measures*
*---------------------*
|---------------------|
|---------------------|

"Sheep Go To Heaven" by Cake
send comments to evilyam4@hotmail.com

X = muted

1e+a2e+a3e+a4e+a 
A...X..X.XXXXX..
AA.AX..X.X.XX...
AA.AX..X.XXXXX..
D...D..D..a.a...


Intro + After Chorus
  1e+a2e+a3e+a4e+a 1e+a2e+a3e+a4e+a 1e+a2e+a3e+a4e+a 1e+a2e+a3e+a4e+a
e|5---------------|----------------|2---0-(2)-------|--------------5-
B|----------------|----------------|--------10------|----------3-2---
G|----------------|----------------|----------2-----|----------------

Verse - 1st Half
  1e+a2e+a3e+a4e+a 1e+a2e+a3e+a4e+a 1e+a2e+a3e+a4e+a 1e+a2e+a3e+a4e+a
  a                a                a                D        AA a

1st Verse - 2nd Half
  1e+a2e+a3e+a4e+a 1e+a2e+a3e+a4e+a 1e+a2e+a3e+a4e+a 1e+a2e+a3e+a4e+a
e|----------------|----------------|----------------|2---------------|
B|2---------------|2---------------|2---------------|3--------11/2---|
G|2---------8-9---|2---------------|2---6---7--8--9-|2---------2-2---|
D|2---------------|2---------------|2---------------|0---------2-2---|
A|0---------------|0---------------|0---------------|----------0-0---|
E|----------------|----------------|----------------|----------------|

2nd Verse - 2nd Half
  1e+a2e+a3e+a4e+a 1e+a2e+a3e+a4e+a 1e+a2e+a3e+a4e+a 1e+a2e+a3e+a4e+a
e|----------------|----------------|----------------|2---------------|
B|2---------------|2---------------|2---------------|3---------------|
G|2---------------|2-----------8-9-|2---6---7--8--9-|2---------------|
D|2---------------|2---------------|2---------------|0---------------|
A|0---------------|0-0-4-----------|0---------------|----------------|
E|----------------|----------------|----------------|----------------|


And the gravedigger...
The stone mason...

  1e+a2e+a3e+a4e+a 1e+a2e+a3e+a4e+a
e|---------2--22--|---------2--22--
B|2--------3--33--|2--------3--33--
G|2--------2--22--|2--------2--22--
D|2---------------|2---------------
A|0---------------|0---------------
E|----------------|----------------


I just want to play...
I just want to drink...

  1 e + a 2 e + a 3 e + a 4 e + a  1e+a2e+a3e+a4e+a
e|--------------------------------|---------2--22--
B|--------------------------------|---------3--33--
G|--------------------------------|---------2--22--
D|--------------------------------|----------------
A|0---0---4---0---5---0-6---0h6h7-|0-0-------------
E|--------------------------------|----------------

[ Tab from: http://www.guitartabs.cc/tabs/c/cake/sheep_go_to_heaven_tab.html ]
The barber can...
As soon as...
  1+2+3+4+
e|--------|--------|
B|--------|--------|
G|1---1---|2---0---|
D|2---0---|2---2---|
A|--------|--------|
E|--------|--------|


The carpenter...
  1e+a2e+a3e+a4e+a 1e+a2e+a3e+a4e+a
e|----------------|----------------
B|3---2---0-------|----------------
G|------------2---|1---------------
D|----------------|----4---2---0---
A|----------------|----------------
E|----------------|----------------

So you might...
  1e+a2e+a3e+a4e+a 1e+a2e+a3e+a4e+a
e|----------------|----------------
B|3---2---0-------|----------------
G|------------2---|1---------------
D|----------------|----4---2-------
A|----------------|------------0---
E|----------------|----------------


Sheep... Goats
D       |a
2x

Interlude
  1+2+3+4+
e|--------|--------|--------|--------|
B|--------|--------|--------|--------|
G*20------|20------|20------|--------*
D*--20----|--20----|--20----|--------*
A|----40-0|----40-0|----40-0|404040-0|
E|------3-|------3-|------3-|------3-|

e|--------|--------|--------|--------|
B|--------|--------|--------|--------|
G|20------|20------|--------|--------|
D|--20----|--20----|--------|--------|
A|----40-0|----40-0|404040-0|404040-0|
E|------3-|------3-|------3-|------3-|
                                         2nd time - double pick
e|(12)~~~~|~~~~~~~~|~~~~~~~~|~~~~~~~~| e|12---|12---|12---|12---|
B|--------|--------|--------|--------| B|14---|12---|10---|-----|
G*20------|20------|20------|--------* G|-----|-----|-----|10---|
D*--20----|--20----|--20----|--------* D|-----|-----|-----|-----|
A|----40-0|----40-0|----40-0|404040-0| A|-----|-----|-----|-----|
E|------3-|------3-|------3-|------3-| E|-----|-----|-----|-----|

*****************

I'm not feeling alright today
I'm not feeling that great
I'm not catching on fire today
Love has started to fade
I'm not going to smile today
I'm not gonna laugh
You're out living it up today
I've got dues to pay

[chorus]
And the gravedigger puts on the forceps
The stone mason does all the work
The barber can give you a haircut
The carpenter can take you out to lunch Now but
I just want to play on my panpipes
I just want to drink me some wine
As soon as you're born you start dying
So you might as well have a good time Oh no
Sheep go to heaven
Goats go to hell
Sheep go to heaven (Sheep go to heaven)
Goats go to hell (Goats go to hell)

Oh no Oh yeah Alright Let's go

I don't want to go to Sunset Strip
I don't want to feel the emptiness
Gold marquees with stupid band names
I don't want to go to Sunset Strip
(2x)
(long interlude with talking in the background)
(repeat chorus)
Alright Oh no Oh no

(Sheep go to heaven)
(Goats go to hell)
(Sheep go to heaven)
(Goats go to hell) Go to hell
(Sheep go to heaven) Go to hell
(Goats go to hell) Go to hell
(Sheep go to heaven) Go to hell
(Goats go to hell) Oh no
(Goats go to hell) Go to hell
(Sheep go to heaven) Go to hell
(Goats go to hell) Go to hell
(Sheep go to heaven) Go to hell
(Goats go to hell) Oh no
(Goats go to hell) Go to hell
Sheep go to heaven
Goats go to hell

Comments