Cake - Sheep Go To Heaven Chords & Tabs

 

Sheep Go To Heaven Chords & Tabs

Cake Chords & Tabs

Version: 1 Type: Bass Tab 1 rating
1 star 2 stars 3 stars 4 stars 5 stars
comments

Sheep Go To Heaven Bass Tab

BTAB - SHEEP GO TO HEAVEN
GROUP - CAKE
AUTHOR - BAZ (BAZBASS@HOTMAIL.COM)

**TAKEN FROM BAZ BASS TAB ARCHIVE (HTTP://BAZ.HOMEPAD.COM)

work out the riffs and plug them into the song kewl riffs though!

    intro                     riff 1
G|-----------|----------------------------------------|
D|-----------|-------------4X554-5\-------------------|
A|-03-04-0505|-5\-4X554-5\----------4X554-03-04-05-5\-|
E|-----------|----------------------------------------|
[ Tab from: http://www.guitartabs.cc/tabs/c/cake/sheep_go_to_heaven_btab.html ]
             riff 2
G|---------------------------|
D|--------XX-53--------------|
A|--33-55--------------XX-53-|
E|---------------33-55-------|

 		interlude
G|--------------------------------------------------------------------------|
D|--77-55-------77-55-------55-33-------55-33-------33-11-------33-11-------|
A|--------77-55-------77-55-------55-33-------55-33-------33-11-------33-11-|
E|--------------------------------------------------------------------------|

Comments