Cake - Sad Songs And Waltzes Chords & Tabs

 

Sad Songs And Waltzes Chords & Tabs

Cake Chords & Tabs

Version: 3 Type: Tab 0 ratings
1 star 2 stars 3 stars 4 stars 5 stars
comments

Sad Songs And Waltzes Tab

"Sad Songs and Waltzes"
CAKE
Tabbed by: Davey

Did this by ear cause the current tab blows dogs for quarters.


Intro:
E---------------------------------------------2---3-2-0------------------------|
B----2--2---------------2--2-----2--3--5------3---3-3-3-3------2--2-----3--5---|
G----2--2-----1--1------2--2-----2--2--4------2----------------2--2-----2--4---|
D----2--2-----2--2------2--2-----2--2------0----0--------------2--2------------|
A-0-----------2--2---0--------0----------------------------0-------------------|
E----------0-------------------------------------------------------------------|


E------2----3-2-0-----------------0-----------------------------------------|
B------3----------3------2-3-5-3----3---2-2--3-2-0-----------------------2--|
G------2-----------------2-2-4-2--------2-2--2-2-2-----4-6-7-----------2----|
D---0----0------------------------------2-2--2-2-2-------------------2------|
A---------------------------------------------------0--2-4-5--0--0h4--------|
E---------------------------------------------------------------------------|


Verse:

I'm wri-ting ...
E---------------------------------------------2---3-2-0---------------------------|
B----2--2---------------2--2-----2--3--5------3---3-3-3-3------2--2-----2---3--5--|
G----2--2-----1--1------2--2-----2--2--4------2----------------2--2-----2---2--4--|
D----2--2-----2--2------2--2-----2--2------0----0--------------2--2-----2---------|
A-0-----------2--2---0--------0----------------------------0---------0------------|
E----------0----------------------------------------------------------------------|


E------2----3-2-0-----------------0-----------------------------------------|
B------3----------3------2-3-5-3----3---2-2--3-2-0--------------------------|
G------2-----------------2-2-4-2--------2-2--2-2-2-----4-6-7----------------|
D---0----0------------------------------2-2--2-2-2-----------------4-2------|
A---------------------------------------------------0--2-4-5--0--------4-0--|
E---------------------------------------------------------------------------|

E---------------------------------------------2---3-2-0---------------------------|
B----2--2---------------2--2-----2--3--5------3---3-3-3-3------2--2-----2---3--5--|
G----2--2-----1--1------2--2-----2--2--4------2----------------2--2-----2---2--4--|
D----2--2-----2--2------2--2-----2--2------0----0--------------2--2-----2---------|
A-0-----------2--2---0--------0----------------------------0---------0------------|
E----------0----------------------------------------------------------------------|


E------2----3-2-0-----------------0-----------------------------------------|
B------3----------3------2-3-5-3----3---2-2--3-2-0--------------------------|
G------2-----------------2-2-4-2--------2-2--2-2-2-----4-6-7----------------|
D---0----0------------------------------2-2--2-2-2-----------------4-2------|
A---------------------------------------------------0--2-4-5--0--------4-0--|
E---------------------------------------------------------------------------|


Chorus:

It's a good thing ...
[ Tab from: http://www.guitartabs.cc/tabs/c/cake/sad_songs_and_waltzes_tab_ver_3.html ]
E-------------------------------------------------------------0--0----0--|
B-----0--0-----0--0-----2--2h3-2--0--------4--4----5-4---5----0--0----0--|
G-----1--1-----1--1-----2--2---2--2--2-----4--4----4-4-4------1--1----1--|
D-----2--2-----2--2-----2--2---------2-----4--4--------------------------|
A-----------2---------0------------------2-------2-----------------------|
E--0--------------------------------------------------------0-------0----|

E----------------------2-----3-2-0--------------------------------------|
B----2--2----3--5------3-----3-3---3---2-2--3-2-0------------2----------|
G----2--2----2--4------2---------------2-2--2-2-2-----4-6-7--2----------|
D----2--2-----------0-----0------------2-2--2-2-2------------2--4-2-----|
A-0------------------------------------------------0--2-4-5--0------4-0-|
E-----------------------------------------------------------------------|

Solo:

E----------------------------------|--------------------12-14-11-13-10-12-9-11-8-10-7--|
B----------------------------2-0---|--------------------12-12-11-11-10-10-9-9--8-8--7--|
G---1--1-----1--1----------------2-|----1--1-----1--1----------------------------------|
D---2--2-----2--2---------2h4------|----2--2-----2--2----------------------------------|
A---2--2-----2--2---0-3h4----------|----2--2--2--2--2----------------------------------|
E-0-------0------------------------|--0------------------------------------------------|

E------------------------------------|-------------------------------------------------|
B----------------------------2--0----|-------------------------------2~~---------------|
G---1--1----1--1------------------2--|----1--1-----1--1--------------------------------|
D---2--2----2--2---------2h4---------|----2--2-----2--2---------2h4--------------------|
A---2--2----2--2--0--3h4-------------|----2--2--2--2--2--0--3h4------------------------|
E-0-------0--------------------------|--0----------------------------------------------|

Chorus:

It's a good thing ...

E-------------------------------------------------------------0--0----0--|
B-----0--0-----0--0-----2--2h3-2--0--------4--4----5-4---5----0--0----0--|
G-----1--1-----1--1-----2--2---2--2--2-----4--4----4-4-4------1--1----1--|
D-----2--2-----2--2-----2--2---------2-----4--4--------------------------|
A-----------2---------0------------------2-------2-----------------------|
E--0--------------------------------------------------------0-------0----|

E----------------------2-----3-2-0--------------------------------------|
B----2--2----3--5------3-----3-3---3---2-2--3-2-0------------2----------|
G----2--2----2--4------2---------------2-2--2-2-2-----4-6-7--2----------|
D----2--2-----------0-----0------------2-2--2-2-2------------2--4-2-----|
A-0------------------------------------------------0--2-4-5--0------4-0-|
E-----------------------------------------------------------------------|

Outro:

E---------------------------------------------2---3-2-0------------------------|
B----2--2---------------2--2-----2--3--5------3---3-3-3-3------2--2-----3--5---|
G----2--2-----1--1------2--2-----2--2--4------2----------------2--2-----2--4---|
D----2--2-----2--2------2--2-----2--2------0----0--------------2--2------------|
A-0-----------2--2---0--------0----------------------------0-------------------|
E----------0-------------------------------------------------------------------|


E------2----3-2-0-----------------0-----------------------------------------|
B------3----------3------2-3-5-3----3---2-2--3-2-0-----------------------2--|
G------2-----------------2-2-4-2--------2-2--2-2-2-----4-6-7-----------2----|
D---0----0------------------------------2-2--2-2-2-------------------2------|
A---------------------------------------------------0--2-4-5--0--0h4--------|
E---------------------------------------------------------------------------|
Comments