Cake - Nugget Chords & Tabs

 

Nugget Chords & Tabs

Cake Chords & Tabs

Version: 1 Type: Bass Tab 0 ratings
1 star 2 stars 3 stars 4 stars 5 stars
comments

Nugget Bass Tab

Song: Nugget
Band: Cake
Album: Fashion Nugget
Played By: Victor Damiani
tabbed by: Mike Quade (quademb@prodigy.net)
 
Normal Tuning
 
Intro:
G--------------------
D--------------------
A--------------------
E---4----15/4--------
 
[ Tab from: http://www.guitartabs.cc/tabs/c/cake/nugget_btab.html ]
Main Riff:
G---------------------------------------
D---------------------------------------
A---------22--2-------------2-4-2-------
E--404--------------404-----------4-----
 

Bridge:
G---------------------------------------
D---------------------------------------
A-5555555-------------------------------
E----------0-2-3-5----------------------
 

Ending:
G------------
D------------
A-------2----
E--4--2------
 
You'll have to listen to the song to figure out how many times to play each part.
Comments