Cake - No Phone Chords & Tabs

 

No Phone Chords & Tabs

Cake Chords & Tabs

Version: 1 Type: Tab 0 ratings
1 star 2 stars 3 stars 4 stars 5 stars
comments

No Phone Tab

Cake
" No phone "
Pressure Chief
Tabbed by Ricky Refunjol
vapvap187@yahoo.com

I started typing the tabs but then I got tired because it's mostly repeats throughout
the entire song with minor differences so you outa figure the rest out for yourself if
you can't then don't play this song  : )

	(starts at (0:17)
.....................................................................
.....................................................................
..                                                                 ..
.. |-------------------------------------------------------------| ..
.. |-------------------------------------------------------------| ..
.. |-------------------------------------------------------------| ..
.. |-------------------------------------------------------------| ..
.. |--2-2-2---2-3-3-3--3-3-3---3-5-5-5--5-6-7--------------------| ..
.. |-------3---------5------5---------7--------------------------| ..
..                                                                 ..
..                                                                 ..
.. |-------------------------------------------------------------| ..
.. |-------------------------------------------------------------| ..
.. |-------------------------------------------------------------| ..
.. |-------------------------------------------------------------| ..
.. |--2-2-2---2-3-3-3--3-3-3---3-5-5-5---------------------------| ..
.. |-------3---------5------5---------7--------------------------| ..
..                                                                 ..
.....................................................................
.....................................................................
	play 3x


   |-------------------------------------------------------------|
   |-------------------------------------------------------------|
   |-------------------------------------------------------------|
   |-------------------------------------------------------------|
   |--2-2-2---2-3-3-3--3-3-3---3-5-5-5--5-6-7--------------------|
   |-------3---------5------5---------7--------------------------|

	at (0:54)
   |-------------------------------------------------------------|
   |-------------------------------------------------------------|
   |-------------------------------------------------------------|
   |-------------------------------------------------------------|
   |--2-2-2---2-3-3-3-------5-6-7--------------------------------|
   |-------3---------5-------------------------------------------|

[ Tab from: http://www.guitartabs.cc/tabs/c/cake/no_phone_tab.html ]
	at(1:00)
.....................................................................
.....................................................................
..                                                                 ..
.. |-------------------------------------------------------------| ..
.. |-------------------------------------------------------------| ..
.. |-------------------------------------------------------------| ..
.. |-------------------------------------------------------------| ..
.. |--2-2-2---2-3-3-3--3-3-3---3-5-5-5--5-6-7--------------------| ..
.. |-------3---------5------5---------7--------------------------| ..
..                                                                 ..
..                                                                 ..
.. |-------------------------------------------------------------| ..
.. |-------------------------------------------------------------| ..
.. |-------------------------------------------------------------| ..
.. |-------------------------------------------------------------| ..
.. |--2-2-2---2-3-3-3--3-3-3---3-5-5-5---------------------------| ..
.. |-------3---------5------5---------7--------------------------| ..
..                                                                 ..
.....................................................................
.....................................................................
	play 2x

	at(1:21)
.....................................................................
.....................................................................
..                                                                 ..
.. |-------------------------------------------------------------| ..
.. |-------------------------------------------------------------| ..
.. |-------------------------------------------------------------| ..
.. |-------------------------------------------------------------| ..
.. |--2-2-2---2-3-3-3--3-3-3---3-5-5-5--5-6-7--------------------| ..
.. |-------3---------5------5---------7--------------------------| ..
..                                                                 ..
.....................................................................
.....................................................................

	play 2x

	at(1:32)
   |-------------------------------------------------------------|
   |-------------------------------------------------------------|
   |-------------------------------------------------------------|
   |-------------------------------------------------------------|
   |--2-2-2---2-3-3-3--3-3-3---3-5-5-5---------------------------|
   |-------3---------5------5---------7--------------------------|

   |-------------------------------------------------------------|
   |-------------------------------------------------------------|
   |-------------------------------------------------------------|
   |-------------------------------------------------------------|
   |--2-2-2---2-3-3-3--------------------------------------------|
   |-------3---------5-------------------------------------------|


	at(1:42)
   |-------------------------------------------------------------|
   |-------------------------------------------------------------|
   |-------------------------------------------------------------|
   |-------------------------------------------------------------|
   |--2-2-2---2-3-3-3--3-3-3---3-5-5-5--5-6-7--------------------|
   |-------3---------5------5---------7--------------------------|


   |-------------------------------------------------------------|
   |-------------------------------------------------------------|
   |-------------------------------------------------------------|
   |-------------------------------------------------------------|
   |--2-2-2---2-3-3-3--3-3-3---3-5-5-5---------------------------|
   |-------3---------5------5---------7--------------------------|

	at (1:52)
   |-------------------------------------------------------------|
   |-------------------------------------------------------------|
   |-------------------------------------------------------------|
   |-------------------------------------------------------------|
   |--2-2-2---2-3-3-3--3-3-3---3-5-5-5---------------------------|
   |-------3---------5------5---------7---5-2-0------------------|


   |-------------------------------------------------------------|
   |-------------------------------------------------------------|
   |-------------------------------------------------------------|
   |-------------------------------------------------------------|
   |--2-2-2---2-3-3-3--3-3-3---3-5-5-5--5-6-7--------------------|
   |-------3---------5------5---------7--------------------------|

	trumpet solo at (2:04)
Comments