Cake - Mahna Mahna Chords & Tabs

 

Mahna Mahna Chords & Tabs

Cake Chords & Tabs

Version: 1 Type: Tab 0 ratings
1 star 2 stars 3 stars 4 stars 5 stars
comments

Mahna Mahna Tab

Artist            : Cake
Album             : 
Song              : Mahna Mahna

Transcribed by    : Tuck
Date              : 04-15-2003
E-mail            : Phishician@aol.com
URL               : 

Note              : 
Tuning            : Standard


[Mahna Mahna]
e|-------------------------------------------------------------------------|
B|-------------------------------------------------------------------------|
G|-------------------------------------------------------------------------|
D|-------------------------------------------------------------------------|
A|-------------------------------------------------------------------------|
E|---6--5--4--2------------------------------------------------------------|


[]
e|-------------------------------------------------------------------------|
B|----------8--------------------------------------------------------------|
G|--7--10------9-----------------------------------------------------------|
D|----------------10-------------------------------------------------------|
A|-------------------------------------------------------------------------|
E|-------------------------------------------------------------------------|
mahna mahna again
[ Tab from: http://www.guitartabs.cc/tabs/c/cake/mahna_mahna_tab.html ]
[]
e|-------------------------------------------------------------------------|
B|--------------8----------------------------------------------------------|
G|---7----10--------9------------------------------------------------------|
D|-------------------------------------------------------------------------|
A|-------------------------------------------------------------------------|
E|-------------------------------------------------------------------------|
mahna mahna

[last riff]
e|-------------------------------------------------------------------------|
B|----------8--------------------------------------------------------------|
G|--7--10------9------8 9-----8 9----8 9-----------------------------------|
D|----------------10-------10----10------10---7--------10 10 10 10 10------|
A|------------------------------------------------10----7--7--8--8--7------|
E|-------------------------------------------------------------------------|


[first solo (guitar)]
e|-------------------------------8--8---7---1---5-6-5----3-----------------|
B|-------------------------6/8--10-10---8---3---6---6----5-----------------|
G|---------------7-9-10----------------------------------------------------|
D|-----7-9-10--------------------------------------------------------------|
A|-10----------------------------------------------------------------------|
E|-------------------------------------------------------------------------|


[second solo]
e|----------8----12---10----8--8-7-7---------------------------------------|
B|-------8---------------------------10---8---8---10---8-------------------|
G|-----9---------------------------------------------------9---------------|
D|--10---------------------------------------------------------------------|
A|-------------------------------------------------------------------------|
E|-------------------------------------------------------------------------|
Comments