Cake - Let Me Go Chords & Tabs

 

Let Me Go Chords & Tabs

Cake Chords & Tabs

Version: 6 Type: Tab 0 ratings
1 star 2 stars 3 stars 4 stars 5 stars
comments

Let Me Go Tab

I've been looking around for the correct tab of this song and couldn't find one so
I took the time to figure it out myself. Enjoy!

Guitar 1 
|------------------------------------------------------------|
|--2-2-2-2--2---3-3-3-3-3-3-3-2---2-2-2--2--5-5-5-5-5-5-5----|
|--2-2-2-2--2---2-2-2-2-2-2-2-2---2-2-2--2--4-4-4-4-4-4-4---o| 
|-----------------------------------------------------------o| 
|------------------------------------------------------------| 
|------------------------------------------------------------|
[ Tab from: http://www.guitartabs.cc/tabs/c/cake/let_me_go_tab_ver_6.html ]
Guitar 2 - Riff 1
|------------------------------------------------------------------------0----|--0--|
|----------------------------------3-----------------------------------0------|--2--|
|---2p1---1----------------------2--------2p1---1----------------------------o|--2--|
|-------4---4p2h0--------------0--------------4---4p2h0--------------2-------o|-----|
|-0--------------4p2h0---0-0------------0--------------4p2h0---0-0------------|-----|
|----------------------4-----2-------------------------------4-----4----------|-----|

Guitar 2 - Riff 2
|-----------------------------------|
|---5---3------------0--3--2--------|
|---4---2------1--2--1--4--2-------o|
|--------------2--4----------------o|
|-----------------------------------|
|-----------------------------------|

Guitar 2 - Riff 3 
|--------------------------------------------------------------|
|-----------------------------------------------5-5-5-5-5-5----|
|---/6-6--7--6--7-6--2-2-2-2-2---/6--7--6--7-6--4-4-4-4-4-4---o|
|---/7-------7-------4-4-4-4-4---/7-----7---------------------o|
|--------------------------------------------------------------|
|--------------------------------------------------------------|

Guitar 2 - Riff 4
|----------------------------|
|----------------------------|
|---4/6\4--2---2------------o|
|------------4---4--2-2-----o|
|----------------------------|
|----------------------------|


Guitar 1 just plays variations of that main riff throughout the song and Guitar 2
recycles through those 4 riffs.
Comments