Cake - Let Me Go Chords & Tabs

 

Let Me Go Chords & Tabs

Cake Chords & Tabs

Version: 2 Type: Tab 1 rating
1 star 2 stars 3 stars 4 stars 5 stars
comments

Let Me Go Tab

   
Cake
Let me go
Prolonging the Magic

Here we go, a pretty hard song done by cake. 

This is the very beginning intro, verse (listen to it) and chorus.
e|---------------------------------------------|
B|-2-2-2-22-3-3-3-3-3-3-3-2-2-2-22-5-5-5-5-5-5-|
G|-2-2-2-22-2-2-2-2-2-2-2-2-2-2-22-4-4-4-4-4-4-|
D|---------------------------------------------|
A|---------------------------------------------|
E|---------------------------------------------|
[ Tab from: http://www.guitartabs.cc/tabs/c/cake/let_me_go_tab_ver_2.html ]
The fun part
e|---------------------------------------------|
B|----------------------------------3----------|
G|---2-1---1-----------------------0-----------|
D|-------4---4-2-0---0------------0------------|
A|-0---------------4---4-2----0----------------|
E|--------------------------4---2--------------|

e|------------------------------------0--------|
B|----------------------------------0----------|
G|---2-1---1-----------------------------------|
D|-------4---4-2-0---0------------2------------|
A|-0---------------4---4-2----0----------------|
E|--------------------------4---4--------------| x2

on the final part of the last riff play an "A" and hold it.

Well thats pretty much the whole song, I'll try and get the bass line 
for it soon, its kinda hard without a bass.

Andy 
Scoop!!!!
Comments