Cake - I Will Survive Chords & Tabs

 

I Will Survive Chords & Tabs

Cake Chords & Tabs

Version: 6 Type: Tab 0 ratings
1 star 2 stars 3 stars 4 stars 5 stars
comments

I Will Survive Tab

This is the saxophone solo found towards the end of the song. I worked it out
myself just from listening and am pretty sure that it is right.

-------------------------------------------------------------------------------
			     I will survive - Cake
-------------------------------------------------------------------------------
Tabbed by: Leah Pritchard
Email: drlazmeister@hotmail.com (feel free to email any questions)

Tuning: Standard

e|--------------15--13--12--10--8-----------------------15--12--13--12-------|
B|--10--10--14---------------------12--10--8--8--10--8-----------------------|
G|---------------------------------------------------------------------------|
D|---------------------------------------------------------------------------|
A|---------------------------------------------------------------------------|
E|---------------------------------------------------------------------------|
[ Tab from: http://www.guitartabs.cc/tabs/c/cake/i_will_survive_tab_ver_6.html ]
e|--10--12--10--8--10--8--7--8--7--------------12--13--13--12--10--8---------|
B|---------------------------------10--12--10--------------------------------|
G|---------------------------------------------------------------------------|
D|---------------------------------------------------------------------------|
A|---------------------------------------------------------------------------|
E|---------------------------------------------------------------------------|

e|------------------------------------------------------12-------------------|
B|--15--13--12--10-----------------------------------------------------------|
G|------------------16--14--12--10-------------------------------------------|
D|----------------------------------17--15--14--12--14-----------------------|
A|---------------------------------------------------------------------------|
E|---------------------------------------------------------------------------|
Comments