Cake - Guitar Man Chords & Tabs

 

Guitar Man Chords & Tabs

Cake Chords & Tabs

Version: 1 Type: Tab 0 ratings
1 star 2 stars 3 stars 4 stars 5 stars
comments

Guitar Man Tab

-----------------------------------------------------------------------------
			     The Guitar Man - Cake
-----------------------------------------------------------------------------
Tabbed by:Finley
Email:

Tuning: standard
[ Tab from: http://www.guitartabs.cc/tabs/c/cake/guitar_man_tab.html ]
e|----0~---------------------------------------------------------------------|
B|----0~--------------------------12--12~------------------------------------|
G|----1~-------------------7--9h12----12~------------------------------------|
D|-2~-2~-------0-----5--7h9-----------12~------------------------------------|
A|-2~-----0h2h3---5h7--------------------------------------------------------|
E|-0~------------------------------------------------------------------------|
Comments