Cake - Friend Is A Four Letter Word Chords & Tabs

 

Friend Is A Four Letter Word Chords & Tabs

Cake Chords & Tabs

Version: 2 Type: Bass Tab 0 ratings
1 star 2 stars 3 stars 4 stars 5 stars
comments

Friend Is A Four Letter Word Bass Tab

Artist: Cake
Song: Friend is a Four Letter Word
Album: Fashion Nugget
Bassist: Victor Damiani
Tabbed by: LedZeplica

The bass doesnt come in until about 35 seconds into the song..

This is the main riff..
"But to me.."
G|--------------------------------------------
D|--------------------------------------------
A|----------------3-----3---3-----------------
E|--5---3-5-5---------3---3------1----3----5--


This is the chord progression for almost the whole song.
[ Tab from: http://www.guitartabs.cc/tabs/c/cake/friend_is_a_four_letter_word_btab_ver_2.html ]
Theres one change though..

G|-------------------------
D|-------------------------
A|-------------------------
E|--0---3-5----0---3-5-----

G|------------
D|------------
A|------3-3---
E|--1---------

G|--------------
D|--------------
A|------3-5-5---
E|--3-----------

G|------
D|------
A|------
E|--5---

G|------
D|------
A|------
E|--0---

G|--------------
D|--------------
A|--------------
E|--5---3-5-5---


Then play the main riff for the rest of the song.

Thats it, later..
ledzeplica@aol.com
Comments