Cake - Arco Arena Chords & Tabs

 

Arco Arena Chords & Tabs

Cake Chords & Tabs

Version: 2 Type: Tab 0 ratings
1 star 2 stars 3 stars 4 stars 5 stars
comments

Arco Arena Tab

-------------------
 Arco Arena - Cake
-------------------

By: diamond_viper

Riff 1
e|---------------|---------------|
B|---------------|---------------|
G|-2-2---2-0-----|-2-2---2-0-----|
D|--2-2-3----3p2-|--2-2-3----3p2-|
A|---------------|---------------|
E|---------------|---------------|

e|---------------|---------------------------|
B|---------------|---------------------------|
G|-2-2---2-0-----|-0-------------2---------2-|
D|--2-2-3----3p2-|--3-2----------------------|
A|---------------|---------------------------|
E|---------------|---------------------------|

Riff 2
e|-5-3-5-0-1-5-3---|-5-3-5-0-1-5-0---|
B|---------------1-|-----------------|
G|-----------------|-----------------|
D|-----------------|-----------------|
A|0----------------|0----------------|
E|-----------------|-----------------|
[ Tab from: http://www.guitartabs.cc/tabs/c/cake/arco_arena_tab_ver_2.html ]
e|-5-3-5-0-1-5-3---|-0---------------|
B|---------------1-|--1-0------------|
G|-----------------|---2-1-2---------|
D|-----------------|-----------------|
A|0----------------|0----------------|
E|-----------------|-----------------|

Riff 3
e|-----------------|------------------|
B|-----1--3--1-----|-----1--3--0------|
G|-----------------|------------------|
D|-----------------|------------------|
A|0----------------|0-----------------|
E|-----------------|------------------|

e|-----------------|------------------|
B|-----1--3--5-----|-6h8p6-5----------|
G|-----------------|---------0-2------|
D|-----------------|------------------|
A|0----------------|------------------|
E|-----------------|------------------|

Riff 4
e|----------------------|----------------------|
B|----------------------|----------------------|
G|----------------------|----------------------|
D|----------------------|----------------------|
A|--------0-2-3-5-3-2-0-|--------0-2-3-5-3-2-0-|
E|----------------------|----------------------|

Song Progression
Riff 1
Riff 2
Riff 2+3
Riff 1+4
Riff 2
Riff 2+3
Riff 1+4
Comments