Cake - Arco Arena Chords & Tabs

 

Arco Arena Chords & Tabs

Cake Chords & Tabs

Version: 1 Type: Tab 0 ratings
1 star 2 stars 3 stars 4 stars 5 stars
comments

Arco Arena Tab

Arco Arena by Cake
From Comfort Eagle

Standard Tuning - Written for 1 guitar, but playable with 2 :)!


Its a pretty easy song to play, but it sounds awesome. Of course, if you have
two guitars, use distortion on one to play its corresponding parts.. and I'm
sure you can figure out when to play what if you have two guitars going at it.

There are some parts of the electric guitar that I neglected to tab out because it
plays during the acoustic (mainly in the middle of the song when the first riff
plays through again). 

All riffs play smoothely into one another.. don't hesitate

Tabbed by Matt Carroll 2002

clean 
e ------------------------t----------------------
B ------------------------w----------------------
G --2---2-----2-0-0-------i---------------------------
D ----2---2-3-------3p2---c----------------------------
A ------------------------e----------------------
E ----------------------------------------------



e ----------------------------------------------
B ----------------------------------------------
G --2---2-----2-0-----0------------------------------
D ----2---2-3-----3-2---3-2-0---------------------------
A ----------------------------------------------
E ----------------------------------------------


distortion here
e ----------------------------------------------
B ----------------------------------------------
G ------------2------------2----------------------
D --0--------------------------------------------
A ----3-2-3p0----2h3-2h3p0-----------------------------------
E ----------------------------------------------

fastly switch to this:

clean
e --8--5---5-----5--------t--------------------------
B -------8---5-6---5------h--------------------------
G -------------------5----r-----------------------
D ------------------------i----------------------
A ------------------------c----------------------
E ------------------------e----------------------


[ Tab from: http://www.guitartabs.cc/tabs/c/cake/arco_arena_tab.html ]
e ----------------------------------------------
B --------5--------------------------------------
G --5--7----5---4-5----------------------------------
D ------------7----------------------------------
A ----------------------------------------------
E ----------------------------------------------


e --8--5---5-----5--------t--------------------------
B -------8---5-6---5------h--------------------------
G -------------------5----r-----------------------
D ------------------------i----------------------
A ------------------------c----------------------
E ------------------------e----------------------


e ----------------------------------------------
B --------5--------------------------------------
G --5--7----5---4-5----------------------------------
D ------------7----------------------------------
A ----------------------------------------------
E ----------------------------------------------

clean 
e ------------------------t----------------------
B ------------------------w----------------------
G --2---2-----2-0-0-------i---------------------------
D ----2---2-3-------3p2---c----------------------------
A ------------------------e----------------------
E ----------------------------------------------


clean 
e ------------------------t----------------------
B ------------------------w----------------------
G --2---2-----2-0-0-------i---------------------------
D ----2---2-3-------3p2---c----------------------------
A ------------------------e----------------------
E ----------------------------------------------


e ----------------------------------------------
B ----------------------------------------------
G --2---2-----2-0-----0------------------------------
D ----2---2-3-----3-2---3-2-0---------------------------
A ----------------------------------------------
E ----------------------------------------------


distortion here
e ----------------------------------------------
B ----------------------------------------------
G ------------2------------2----------------------
D --0--------------------------------------------
A ----3-2-3p0----2h3-2h3p0-----------------------------------
E ----------------------------------------------
Comments