Caifanes - Afuera Chords & Tabs

 

Afuera Chords & Tabs

Caifanes Chords & Tabs

Version: 2 Type: Tab 0 ratings
1 star 2 stars 3 stars 4 stars 5 stars
comments

Afuera Tab

   
#----------------------------------PLEASE NOTE---------------------------------#
#This file is the author's own work and represents their interpretation of the #
#song. You may only use this file for private study, scholarship, or research. #
#------------------------------------------------------------------------------##
Bueno, ahi esta otra vez "Afuera" de Caifanes. Esta escrita totalmente por
compases continuos. Hay que guiarse por la letra, y no por la separacion de
la tablatura. Si alguien nota algun error que me lo haga saber en
"ddiaz@nether.net" o "Daniel.Diaz@f2.n971.z4.fidonet.org". Ahi va

============================================================================
w = unidad: redonda             W = silencio del mismo valor
h = mitad: blanca               H = silencio del mismo valor
q = cuarta: negra               Q = silencio del mismo valor
e = octava: corchea             E = silencio del mismo valor
============================================================================

   Tacet
e|----------------------|---------------------|-----------------------|----|
B|----------------------|---------------------|-----------------------|----|
G|----------------------|---------------------|-----------------------|----|
D|--9--7-------9-7---7--|-9--7-------9-7---7--|---9--7-------9-7---7--|-9--|
A|--------9--------9----|-------9--------9----|---------9--------9----|----|
E|----------------------|---------------------|-----------------------|----|

Aqui entran los teclados con un sonido suave e interminable desde B hasta B
de la siguiente octava, completando con D y F# para un Bm
  (Bm)
   Bm
e|----------------------|---------------------|-----------------------|----|
B|----------------------|---------------------|-----------------------|----|
G|----------------------|---------------------|-----------------------|----|
D|--9--7-------9-7---7--|-9--7-------9-7---7--|---9--7-------9-7---7--|-9--|
A|--------9--------9----|-------9--------9----|---------9--------9----|----|
E|----------------------|---------------------|-----------------------|----|

(Cambio a piano electrico)
      (Em7)     (Em7)     (Em7)     (Em)
  Bm   Em7  Bm   Em7  Bm   Em7  Bm   Em
|-------------------|--------------------|
|-------------------|--------------------|
|-------------------|--------------------|
|-------------------|--------------------|
|-------------------|--------------------|
|-------------------|--------------------|
  E    Q.   E    Q.    E    Q.   E    Q.

		(BDF#)                      (DF#)(BF#)(DF#)
  Bm            Bm        Bm                Bm
|-------------|---------|-----------------|----------------|
|-------------|---------|-----------------|----------------|
|-------------|---------|-----------------|----------------|
|-------------|---------|-----------------|----------------|
|-------------|---------|-----------------|----------------|
|-------------|---------|-----------------|----------------|
  Muchos anios uno cree, que el caer es levantarse, y de re-pente
			   (GBE)
  Em                       Em
|------------------------|--------------------------|
|------------------------|--------------------------|
|------------------------|--------------------------|
|-------2-0---------2-0--|-------2-0----------2--0--|
|-----2-----------2------|-----2-----------2--------|
|--0-----------0---------|--0-----------0-----------|
 -pente,                                   ya no te
			  (F#A#C#)
  F#                       F#
|-------------------------|------------------------|
|-------------------------|------------------------|
|-------------------------|------------------------|
|--------2-0---------2-0--|-------2-0---------2-0--|
|------2-----------2------|-----2-----------2------|
|--0------------0---------|--0-----------0---------|
  paras.

			    (B)(DF#)         (DF#)(BF#)(DF#)
  Bm              Bm        Bm               Bm
|---------------|---------|----------------|---------------|
|---------------|---------|----------------|---------------|
|---------------|---------|----------------|---------------|
|---------------|---------|----------------|---------------|
|-2-------------|---------|-2--------------|---------------|
|---------------|---------|----------------|---------------|
  Que el amor es temporal, que todo te puede pasar, y de re-pente


  Em                       Em
|------------------------|--------------------------|
|------------------------|--------------------------|
|------------------------|--------------------------|
|-------2-0---------2-0--|-------2-0----------2--0--|
|-----2-----------2------|-----2-----------2--------|
|--0-----------0---------|--0-----------0-----------|
 -pente,                                  estas muy

  F#                       F#
|------------------------|------------------------|
|------------------------|------------------------|
|------------------------|------------------------|
|-------2-0---------2-0--|-------2-0---------2-0--|
|-----2-----------2------|-----2-----------2------|
|--0-----------0---------|--0-----------0---------|
  solo.

  (B<E)
  Bm              Bm               Em              F#
|-----2---------|-----2----------|-----2---------|-----2----------|
|-0-0---3-3-2-3-|-0-0---3-3-2-3--|-0-0---3-3-2-3-|-2-2---3-3-2-3--|
|---------------|----------------|---------------|----------------|
|---------------|----------------|---------------|----------------|
|---------------|----------------|---------------|----------------|
|---------------|----------------|---------------|----------------|
  Afuera, - - - - Afuera tu no ex-istes, solo adentro.
  Bm              Bm               Em              F#
|-----2---------|-----2----------|-----2---------|-----2----------|
|-0-0---3-3-2-3-|-0-0---3-3-2-3--|-0-0---3-3-2-3-|-2-2---3-3-2-3--|
|---------------|----------------|---------------|----------------|
|---------------|----------------|---------------|----------------|
|---------------|----------------|---------------|----------------|
|---------------|----------------|---------------|----------------|
  Afuera, - - - - Afuera no te --  cuido, solo adentro.
  Bm              Bm               Em              F#
|-----2---------|-----2----------|-----2---------|-----2----------|
|-0-0---3-3-2-3-|-0-0---3-3-2-3--|-0-0---3-3-2-3-|-2-2---3-3-2-3--|
|---------------|----------------|---------------|----------------|
|---------------|----------------|---------------|----------------|
|---------------|----------------|---------------|----------------|
|---------------|----------------|---------------|----------------|
 Afuera, - - - -- te desbarata el -viento sin dudarlo.
  Bm              Bm               Em              F#
|-----2---------|-----2----------|-----2---------|-----2----------|
|-0-0---3-3-2-3-|-0-0---3-3-2-3--|-0-0---3-3-2-3-|-2-2---3-3-2-3--|
|---------------|----------------|---------------|----------------|
|---------------|----------------|---------------|----------------|
|---------------|----------------|---------------|----------------|
|---------------|----------------|---------------|----------------|
 Afuera, - - - -- nadie es - - - - nada, solo adentro.
  Gm     Am     Bm     Bm
|------|------|------|------|
|------|------|------|------|
|------|------|------|------|
|------|------|------|------|
|------|------|------|------|
|------|------|------|------|
  Ahhhhhhhhhh   Ahhh
	 Ahhh

				(BDF#)            (DF#)(BF#)
  Bm                  Bm        Bm                Bm
|-------------------|---------|-----------------|---------------|
|-------------------|---------|-----------------|---------------|
|-------------------|---------|-----------------|---------------|
|-------------------|---------|-----------------|---------------|
|-------------------|---------|-----------------|---------------|
|-------------------|---------|-----------------|---------------|
  Siguen los anios y uno esta, creyendo que puede rezar, y de re-pente

  Em                       Em
|------------------------|--------------------------|
|------------------------|--------------------------|
|------------------------|--------------------------|
|-------2-0---------2-0--|-------2-0----------2--0--|
|-----2-----------2------|-----2-----------2--------|
|--0-----------0---------|--0-----------0-----------|
-pente,                                    ya te per-diste

  F#                        F#
|-------------------------|------------------------|
|-------------------------|------------------------|
|-------------------------|------------------------|
|--------2-0---------2-0--|-------2-0---------2-0--|
|------2-----------2------|-----2-----------2------|
|--0------------0---------|--0-----------0---------|
 -diste.

			       (B)(DF#)     (DF#)(BF#)(DF#)
  Bm                Bm         Bm           Bm
|------------------|---------|------------|-----------------|
|------------------|---------|------------|-----------------|
|------------------|---------|------------|-----------------|
|------------------|---------|------------|-----------------|
|-2----------------|---------|-2----------|-----------------|
|------------------|---------|------------|-----------------|
  Y uno cree que puede creer, y tener todo el poder, y de re-pente

  Em                       Em
|------------------------|---------------------------|
|------------------------|---------------------------|
|------------------------|---------------------------|
|-------2-0---------2-0--|-------2-0----------2--0---|
|-----2-----------2------|-----2-----------2---------|
|--0-----------0---------|--0-----------0------------|
-pente,                                   no tienes

  F#
|-------------------------|-----------------------|
|-------------------------|-----------------------|
|-------------------------|-----------------------|
|--------2-0---------2-0--|-------2-0---------2-0-|
|------2-----------2------|-----2-----------2-----|
|--0------------0---------|--0-----------0--------|
  nada.
  (B<E)
  Bm              Bm               Em              F#
|-----2---------|-----2----------|-----2---------|-----2----------|
|-0-0---3-3-2-3-|-0-0---3-3-2-3--|-0-0---3-3-2-3-|-2-2---3-3-2-3--|
|---------------|----------------|---------------|----------------|
|---------------|----------------|---------------|----------------|
|---------------|----------------|---------------|----------------|
|---------------|----------------|---------------|----------------|
  Afuera, - - - - Afuera tu no ex-istes, solo adentro.
  Bm              Bm               Em              F#
|-----2---------|-----2----------|-----2---------|-----2----------|
|-0-0---3-3-2-3-|-0-0---3-3-2-3--|-0-0---3-3-2-3-|-2-2---3-3-2-3--|
|---------------|----------------|---------------|----------------|
|---------------|----------------|---------------|----------------|
|---------------|----------------|---------------|----------------|
|---------------|----------------|---------------|----------------|
  Afuera, - - - - Afuera no te --  cuido, solo adentro.
  Bm              Bm               Em              F#
|-----2---------|-----2----------|-----2---------|-----2----------|
|-0-0---3-3-2-3-|-0-0---3-3-2-3--|-0-0---3-3-2-3-|-2-2---3-3-2-3--|
|---------------|----------------|---------------|----------------|
|---------------|----------------|---------------|----------------|
|---------------|----------------|---------------|----------------|
|---------------|----------------|---------------|----------------|
 Afuera, - - - -- te desbarata el -viento sin dudarlo.
  Bm              Bm               Em              F#
|-----2---------|-----2----------|-----2---------|-----2----------|
|-0-0---3-3-2-3-|-0-0---3-3-2-3--|-0-0---3-3-2-3-|-2-2---3-3-2-3--|
|---------------|----------------|---------------|----------------|
|---------------|----------------|---------------|----------------|
|---------------|----------------|---------------|----------------|
|---------------|----------------|---------------|----------------|
 Afuera, - - - -- nadie es - - - - nada, solo adentro.
  Gm     Am
|------|------|
|------|------|
|------|------|
|------|------|
|------|------|
|------|------|
  Ahhhhhhhhhh
	 Ahhh
[ Tab from: http://www.guitartabs.cc/tabs/c/caifanes/afuera_tab_ver_2.html ]
  Bm
|-10-7-9-----------10--7-9----------|--10-7-9----------7-----|
|--------10-7--------------10-7-----|---------10-7-(10)------|
|-------------9-7---------------9-7-|------------------------|
|-----------------------------------|------------------------|
|-----------------------------------|------------------------|
|-----------------------------------|------------------------|
 Ahhhhhhhhhhhhhhhhhhhhhhhhhhhhhhhh

    Version radio:
    Tacet
R>|-10-7-9------------|
R>|--------10-7-------|
R>|-------------9-7---|
R>|-------------------|
R>|-------------------|
R>|-------------------|
    -------w----------|

    Version video:
    Tacet
V>|-10-7-9-----------10--7-9----------|-10-7-9----------|
V>|--------10-7--------------10-7-----|--------10-7-----|
V>|-------------9-7---------------9-7-|-------------9-7-|
V>|-----------------------------------|-----------------|
V>|-----------------------------------|-----------------|
V>|-----------------------------------|-----------------|

V>|-----------------------|----------|
V>|-----------------------|----------|
V>|-7-777-7-777-7-777-7-77|76--------|
V>|-----------------------|---9-7-9--|
V>|-----------------------|----------|
V>|-----------------------|----------|

V>|-------------------------------------------------------------------------->
V>|-------------------------------------------------------------------------->
V>|---6-7-777-7-777-7-777-7-776-7-9-11-111111-11-111111-11-111111-11-9-7-6--->
V>|-9----------------------------------------------------------------------9->
V>|-------------------------------------------------------------------------->
V>|-------------------------------------------------------------------------->


**------**
From: Leonardo Calva Medinilla 

"SOLO"
--------------------------------------------------|
E |--------------------|   |----------------------|
B |--------------------|   |----------------------|
G |--7--7--7--7-7-7-7--| % |--7-7-7-7-6-4-2-2/4---|
D |--------------------|   |----------------------|
A |--------------------|   |----------------------|
E |--------------------|   |----------------------|

E |-------------------------|----------------------------|
B |-------------------------|----------------------------|
G |--7-7-7-7-6-7-9/11--11-11|--11--9--7--6-4-------7--9--|
D |-------------------------|----------------------------|
A |-------------------------|----------------------------|
E |-------------------------|----------------------------|

E |-------------------------|----------------------------|
B |-------------------------|----------------------------|
G |--/11--11---11--11-9-7-9-|-9/11--11--11--11-----7--9--|
D |-------------------------|----------------------------|
A |-------------------------|----------------------------|
E |-------------------------|----------------------------|

E |-------------------------|----------------------------|
B |-------------------------|----------------------------|
G |--/11--11---11--11-14-12-|-11-12-11~~~~~--------7--9--|
D |-------------------------|----------------------------|
A |-------------------------|----------------------------|
E |-------------------------|----------------------------|
				 h  p
E |-------------------------|----------------------------|
B |-------------------------|----------------------------|
G |--/11--11-------14----12-|--11^12^11---9--7----7--9---|
D |-------------------------|----------------------------|
A |-------------------------|----------------------------|
E |-------------------------|----------------------------|
		h
E |-------------------------|----------------------------|
B |-----------10^12-----10--|---------------------12--10-|
G |--/11--11----------------|--11~~~~~-------------------|
D |-------------------------|----------------------------|
A |-------------------------|----------------------------|
E |-------------------------|----------------------------|

E |-------------------------|----------------------------|
B |--12--10--12-------------|----------------------------|
G |-------------11-----9--7-|--9--7----------------------|
D |-------------------------|---------9--7--9------------|
A |-------------------------|----------------------------|
E |-------------------------|----------------------------|

E |-------------------------|
B |-------------------------|
G |------------------6--~~~~|
D |-----9--9---7--9-----9---|
A |--/9---------------------|
E |-------------------------|

    lg276942@hp9k.lag.itesm.mx (Leonardo C.)
**------**

<------|.............
<-0-2--|.3....3......
<------|.............
<------|.............
<------|....2...2....
<------|.............

  Bm                                    D
|------------------------------------------------|
|-3----3----3----3----3---3----3---3----7----7---|
|------------------------------------------------|
|------------------------------------------------|
|----2---2-----2---2----2---2----2---2-----5---5-|
|------------------------------------------------|

  Bm                                    D
|------------------------------------------------|
|-3----3----3----3----3---3----3---3----7----7---|
|------------------------------------------------|
|------------------------------------------------|
|----2---2-----2---2----2---2----2---2-----5---5-|
|------------------------------------------------|

  Bm                                    A
|------------------------------------------------|
|-3----3----3----3----3---3----3---3----2----2---|
|------------------------------------------------|
|------------------------------------------------|
|----2---2-----2---2----2---2----2---2-----0---0-|
|------------------------------------------------|

  Bm                                        Bm C#m
|------------------------------------------------|
|-3----3----3----3----3---3----3---3--------3--5-|
|------------------------------------------------|
|------------------------------------------------|
|----2---2-----2---2----2---2----2---------------|
|------------------------------------------------|

  D                                    G
|------------------------------------------------|
|-7----7----7----7----7---7----7---7---12---12---|
|------------------------------------------------|
|------------------------------------------------|
|----5---5-----5---5----5---5----5---5----10--10-|
|------------------------------------------------|

  D                                    G
|------------------------------------------------|
|-7----7----7----7----7---7----7---7---12---12---|
|------------------------------------------------|
|------------------------------------------------|
|----5---5-----5---5----5---5----5---5----10--10-|
|------------------------------------------------|

  D                                    C#m
|------------------------------------------------|
|-7----7----7----7----7---7----7---7----5----5---|
|------------------------------------------------|
|------------------------------------------------|
|----5---5-----5---5----5---5----5---5-----4---4-|
|------------------------------------------------|

  Bm
|------------------------------------------------|
|-3----3----3----3----3---3----3---3----2---2----|
|------------------------------------------------|
|------------------------------------------------|
|----2---2-----2---2----2---2----2---2----0---0--|
|------------------------------------------------|

  Bm                 A       Bm                   A       Bm
|-10--7-7--10--7-7---5-5-7-8-7----5--2-2--5--2-2--0-0-2-3-2--|
|--7--7-7---7--7-7---5-5-7-8-7----7--3-3--7--3-3--2-2-3-5-3--|
|------------------------------------------------------------|
|------------------------------------------------------------|
|------------------------------------------------------------|
|------------------------------------------------------------|

  Bm                 A       Bm                   A       Bm
|-10--7-7--10--7-7---5-5-7-8-7----5--2-2--5--2-2--0-0-2-3-2--|
|--7--7-7---7--7-7---5-5-7-8-7----7--3-3--7--3-3--2-2-3-5-3--|
|------------------------------------------------------------|
|------------------------------------------------------------|
|------------------------------------------------------------|
|------------------------------------------------------------|
  (B<E)
  Bm              Bm               Em              F#
|-----2---------|-----2----------|-----2---------|-----2----------|
|-0-0---3-3-2-3-|-0-0---3-3-2-3--|-0-0---3-3-2-3-|-2-2---3-3-2-3--|
|---------------|----------------|---------------|----------------|
|---------------|----------------|---------------|----------------|
|---------------|----------------|---------------|----------------|
|---------------|----------------|---------------|----------------|
  Afuera, - - - - Afuera tu no ex-istes, solo adentro.
  Bm              Bm               Em              F#
|-----2---------|-----2----------|-----2---------|-----2----------|
|-0-0---3-3-2-3-|-0-0---3-3-2-3--|-0-0---3-3-2-3-|-2-2---3-3-2-3--|
|---------------|----------------|---------------|----------------|
|---------------|----------------|---------------|----------------|
|---------------|----------------|---------------|----------------|
|---------------|----------------|---------------|----------------|
  Afuera, - - - - Afuera no te --  cuido, solo adentro.
  Bm              Bm               Em              F#
|-----2---------|-----2----------|-----2---------|-----2----------|
|-0-0---3-3-2-3-|-0-0---3-3-2-3--|-0-0---3-3-2-3-|-2-2---3-3-2-3--|
|---------------|----------------|---------------|----------------|
|---------------|----------------|---------------|----------------|
|---------------|----------------|---------------|----------------|
|---------------|----------------|---------------|----------------|
 Afuera, - - - -- te desbarata el -viento sin dudarlo.
  Bm              Bm               Em              F#
|-----2---------|-----2----------|-----2---------|-----2----------|
|-0-0---3-3-2-3-|-0-0---3-3-2-3--|-0-0---3-3-2-3-|-2-2---3-3-2-3--|
|---------------|----------------|---------------|----------------|
|---------------|----------------|---------------|----------------|
|---------------|----------------|---------------|----------------|
|---------------|----------------|---------------|----------------|
 Afuera, - - - -- nadie es - - - - nada, solo adentro.

  Gm     Am     Bm       Tacet subito
|------|------|--------|.........
|------|------|--------|.........
|------|------|--------|.........
|------|------|--------|.........
|------|------|--------|.........
|------|------|--------|.........
  Ahhh   Ahhh   Ahhh

  Tacet
|-----3-2-------3-2-------3-2-------3-2-|---|
|-0-0-------0-0-------0-0-------0-0-----|-0-|
|---------------------------------------|---|
|---------------------------------------|---|
|---------------------------------------|---|
|---------------------------------------|---|
					  w
  Acordes usados

      Bm   F#   Em   D    A    C#m  G
e|----2----2----0----5----0----4----10----|
B|----3----2----0----7----2----5----12----|
G|----4----3----0----7----2----6----12----|
D|----4----4----2----7----2----6----12----|
A|----2----4----2----5----0----4----10----|
E|---------2----0-------------------------|

 Bm          F#          G
 B D F#      A# C# F#    G B D

 Em          D
 E G B       F# A D

 A           C#m
 A C# E      C# E G#


Esta es una hermosa cancion de Caifanes, espero que le entiendas en la parte
de los requintos. Estoy seguro de que hay un error en la parte del video,
ojala que alguien lo saque y me lo diga. Las notas entre parentesis son
para el teclado, con piano electrico en casi toda la cancion. La parte de
B<E es ir A B y bajar A E (B/A/G/F/E). La parte de teclados no esta sacada
con mucha emocion, es nadamas para que se tenga una idea. Casi todos los
requintos me los paso Javier, si no hubiera sido por el no la hubiera
escrito, y tambien le quiero agradecer a Leonardo que me permitiera poner
parte de su TAB en el mio, THX!

Escribeme de perdido para rayarmela:

Daniel Diaz:
 ddiaz@nether.net
 Daniel.Diaz@f2.n971.z4.fidonet.org
Leonardo C.:
 lg276942@hp9k.lag.itesm.mx

Monterrey, Nuevo Leon, Mexico
Torreon, Coahuila, Mexico

Daniel Diaz
Leonardo Calva Medinilla
Comments