Caifanes - Afuera Chords & Tabs

 

Afuera Chords & Tabs

Caifanes Chords & Tabs

Version: 1 Type: Tab 0 ratings
1 star 2 stars 3 stars 4 stars 5 stars
comments

Afuera Tab

   
#----------------------------------PLEASE NOTE---------------------------------#
#This file is the author's own work and represents their interpretation of the #
#song. You may only use this file for private study, scholarship, or research. #
#------------------------------------------------------------------------------##
Bueno, ahi esta otra vez "Afuera" de Caifanes. Esta escrita totalmente por 
compases continuos. Hay que guiarse por la letra, y no por la separacion de
la tablatura. Si alguien nota algun error que me lo haga saber en 
"ddiaz@nether.net" o "Daniel.Diaz@f2.n971.z4.fidonet.org". Ahi va

============================================================================
w = unidad: redonda             W = silencio del mismo valor
h = mitad: blanca               H = silencio del mismo valor
q = cuarta: negra               Q = silencio del mismo valor
e = octava: corchea             E = silencio del mismo valor
============================================================================

   Tacet
e|----------------------|---------------------|-----------------------|----|
B|----------------------|---------------------|-----------------------|----|
G|----------------------|---------------------|-----------------------|----|
D|--9--7-------9-7---7--|-9--7-------9-7---7--|---9--7-------9-7---7--|-9--|
A|--------9--------9----|-------9--------9----|---------9--------9----|----|
E|----------------------|---------------------|-----------------------|----|

Aqui entran los teclados con un sonido suave e interminable desde B hasta B
de la siguiente octava, completando con D y F# para un Bm
  (Bm)
   Bm
e|----------------------|---------------------|-----------------------|----|
B|----------------------|---------------------|-----------------------|----|
G|----------------------|---------------------|-----------------------|----|
D|--9--7-------9-7---7--|-9--7-------9-7---7--|---9--7-------9-7---7--|-9--|
A|--------9--------9----|-------9--------9----|---------9--------9----|----|
E|----------------------|---------------------|-----------------------|----|

(Cambio a piano electrico)
      (Em7)     (Em7)     (Em7)     (Em)
  Bm   Em7  Bm   Em7  Bm   Em7  Bm   Em
|-------------------|--------------------|
|-------------------|--------------------|
|-------------------|--------------------|
|-------------------|--------------------|
|-------------------|--------------------|
|-------------------|--------------------|
  E    Q.   E    Q.    E    Q.   E    Q.

(BDF#)                      (DF#)(BF#)(DF#)
  Bm            Bm        Bm                Bm
|-------------|---------|-----------------|----------------|
|-------------|---------|-----------------|----------------|
|-------------|---------|-----------------|----------------|
|-------------|---------|-----------------|----------------|
|-------------|---------|-----------------|----------------|
|-------------|---------|-----------------|----------------|
  
   (GBE)
  Em                       Em   
|------------------------|--------------------------|
|------------------------|--------------------------|
|------------------------|--------------------------|
|-------2-0---------2-0--|-------2-0----------2--0--|
|-----2-----------2------|-----2-----------2--------|
|--0-----------0---------|--0-----------0-----------|
 
  (F#A#C#)
  F#                       F#
|-------------------------|------------------------|
|-------------------------|------------------------|
|-------------------------|------------------------|
|--------2-0---------2-0--|-------2-0---------2-0--|
|------2-----------2------|-----2-----------2------|
|--0------------0---------|--0-----------0---------|
 

    (B)(DF#)         (DF#)(BF#)(DF#)
  Bm              Bm        Bm               Bm
|---------------|---------|----------------|---------------|
|---------------|---------|----------------|---------------|
|---------------|---------|----------------|---------------|
|---------------|---------|----------------|---------------|
|-2-------------|---------|-2--------------|---------------|
|---------------|---------|----------------|---------------|
 

[ Tab from: http://www.guitartabs.cc/tabs/c/caifanes/afuera_tab.html ]
  Em                       Em
|------------------------|--------------------------|
|------------------------|--------------------------|
|------------------------|--------------------------|
|-------2-0---------2-0--|-------2-0----------2--0--|
|-----2-----------2------|-----2-----------2--------|
|--0-----------0---------|--0-----------0-----------|
 

  F#                       F#
|------------------------|------------------------|
|------------------------|------------------------|
|------------------------|------------------------|
|-------2-0---------2-0--|-------2-0---------2-0--|
|-----2-----------2------|-----2-----------2------|
|--0-----------0---------|--0-----------0---------|
  solo.

  (B|--------10-7-----|
R>|-------------9-7-|
R>|-----------------|
R>|-----------------|
R>|-----------------|
    -------w-------

    Version video:
    Tacet
V>|-10-7-9-----------10--7-9----------|-10-7-9----------|
V>|--------10-7--------------10-7-----|--------10-7-----|
V>|-------------9-7---------------9-7-|-------------9-7-|
V>|-----------------------------------|-----------------|
V>|-----------------------------------|-----------------|
V>|-----------------------------------|-----------------|

V>|-----------------------|----------|
V>|-----------------------|----------|
V>|-7-777-7-777-7-777-7-77|76--------|
V>|-----------------------|---9-7-9--|
V>|-----------------------|----------|
V>|-----------------------|----------|

V>|-------------------------------------------------------------------------->
V>|-------------------------------------------------------------------------->
V>|---6-7-777-7-777-7-777-7-776-7-9-11-111111-11-111111-11-111111-11-9-7-6--->
V>|-9----------------------------------------------------------------------9->
V>|-------------------------------------------------------------------------->
V>|-------------------------------------------------------------------------->


**------**
From: Leonardo Calva Medinilla 

"SOLO"
------
E |--------------------|   |--------------------|
B |--------------------|   |--------------------|
G |--7--7--7--7-7-7-7--| % |--7-7-7-7-6-4-2-2/4-|
D |--------------------|   |--------------------|
A |--------------------|   |--------------------|
E |--------------------|   |--------------------|

E |-------------------------|----------------------------|
B |-------------------------|----------------------------|
G |--7-7-7-7-6-7-9/11--11-11|--11--9--7--6-4-------7--9--|
D |-------------------------|----------------------------|
A |-------------------------|----------------------------|
E |-------------------------|----------------------------|

E |-------------------------|----------------------------|
B |-------------------------|----------------------------|
G |--/11--11---11--11-9-7-9-|-9/11--11--11--11-----7--9--|
D |-------------------------|----------------------------|
A |-------------------------|----------------------------|
E |-------------------------|----------------------------|

E |-------------------------|----------------------------|
B |-------------------------|----------------------------|
G |--/11--11---11--11-14-12-|-11-12-11~~~~~--------7--9--|
D |-------------------------|----------------------------|
A |-------------------------|----------------------------|
E |-------------------------|----------------------------|
 h  p
E |-------------------------|----------------------------|
B |-------------------------|----------------------------|
G |--/11--11-------14----12-|--11^12^11---9--7----7--9---|
D |-------------------------|----------------------------|
A |-------------------------|----------------------------|
E |-------------------------|----------------------------|
h
E |-------------------------|----------------------------|
B |-----------10^12-----10--|---------------------12--10-|
G |--/11--11----------------|--11~~~~~-------------------|
D |-------------------------|----------------------------|
A |-------------------------|----------------------------|
E |-------------------------|----------------------------|

E |-------------------------|----------------------------|
B |--12--10--12-------------|----------------------------|
G |-------------11-----9--7-|--9--7----------------------|
D |-------------------------|---------9--7--9------------|
A |-------------------------|----------------------------|
E |-------------------------|----------------------------|

E |-------------------------|
B |-------------------------|
G |------------------6--~~~~|
D |-----9--9---7--9-----9---|
A |--/9---------------------|
E |-------------------------|

    lg276942@hp9k.lag.itesm.mx (Leonardo C.)
**------**
Comments