Cafe Tacuba - Las Batallas Chords & Tabs

 

Las Batallas Chords & Tabs

Cafe Tacuba Chords & Tabs

Version: 1 Type: Chords 0 ratings
1 star 2 stars 3 stars 4 stars 5 stars
comments

Las Batallas Chords

   
INTRO
e---12--12--12--12------14--14--14------11--11--11--11------12--12--12--12-
B---12--12--12--12------12--12--12------12--12--12--12------12--12--12--12-
G---13--13--13--13------13--12--13------11--11--11--11------11--11--11--11-
D--------------------------------------------------------------------------
A--------------------------------------------------------------------------
E--------------------------------------------------------------------------

e----9---9-p10p9---9---9--p10p9-----7--7--7--7-----9--9--9-------------
B---10--10--------10--10------------7--7--7--7-----7--7--7-------------
G----9---9---------9---9------------8--8--8--8-----8--8--8-------------
D----------------------------------------------------------------------
A----------------------------------------------------------------------
E----------------------------------------------------------------------


E	  G#m     
Oye Carlos por que tuviste
       D  Dsus4  D
que salirte de la escuela 
        A
esta mañana?
E	  G#m
Oye Carlos por que tuviste
      D  Dsus4  D
que decirle que la amabas 
      A
A Mariana?


F#m                          A
En la escuela se corrio el rumor
F#m		      A
y en tu clase todo mundo se entero.

[ Tab from: http://www.guitartabs.cc/tabs/c/cafe_tacuba/las_batallas_crd.html ]
E	  G#m
En tu casa mama te pregunto
     D  Dsus4  D
si acaso fue tu hermano 
	    A
quien te indujo,
E	   G#m
o peor aun, fue Mariana si,
D  Dsus4  D
fue ella quien 
          A
te lo propuso.


F#m	                    A
Papa dijo: 'este ni~o no es normal,
F#m			A
sera mejor llevarlo al hospital'


INTRO  x 2 (estos son los acordes que acompañan  E G#m  D Dsus4  D  A)


F#m				  E
Por alto que este el cielo en el mundo
F#m			     E
por hondo que sea el mar profundo,
F#m			    E
no habra una barrera en el mundo
F#m			 E
que mi amor profundo no rompa por ti.


INTRO (suena hasta el final de la canción)

E	  G#m     
Oye Carlos por que tuviste
       D  Dsus4  D
que salirte de la escuela 
        A
esta mañana?
E	  G#m
Oye Carlos por que tuviste
      D  Dsus4  D
que decirle que la amabas 
      A
A Mariana?
-------------------------
Estos son los acordes

   E    G#m    D  Dsus4  A    F#m
e--0-----4-----2----3----0-----2---------------------------------------------
B--0-----4-----3----3----2-----2---------------------------------------------
G--1-----4-----2----2----2-----2---------------------------------------------
D--2-----6-----0----0----2-----4---------------------------------------------
A--2-----6-----0----0----0-----4---------------------------------------------
E--0-----4-----0----0----0-----2---------------------------------------------

Bueno espero y la disfruten, solo tienes que escuchar la canción para agarrar el ritmo
sobre todo en la parte del intro
Comments