Cafe Tacuba - Guacamaya Chords & Tabs

 

Guacamaya Chords & Tabs

Cafe Tacuba Chords & Tabs

Version: 1 Type: Tab 0 ratings
1 star 2 stars 3 stars 4 stars 5 stars
comments

Guacamaya Tab

Band: Joselo
Song: Guacamaya


tabbed by jam9383@yahoo.com


Intro

e-------------------------5-5----------------------2--2---------------|
B-------------------------5-5----------------------0--0---------------|
G-------------------------2-2----------------------0--0---------------|
D-------------------------4-4----------------------2--2---------------|
A--------4-5---4-5---4-5--5-5--------4-5-4-5-------2--2---------------|
E--3h4h5-----5-----5------------3h4h5---------5-0--0--0---------------|

Verse

e--2--2--2--x--2--2--2--x--2--2--2--x---------------------------------|
B--3--3--3--x--3--3--3--x--3--3--3--x---------------------------------|
G--2--2--2--x--2--2--2--x--2--2--2--x---------------------------------|
D--0--0--0--x--0--0--0--x--0--0--0--x---------------------------------|
A---------------------------------------------------------------------|
E--------------------------------------0------------------------------|
[ Tab from: http://www.guitartabs.cc/tabs/c/cafe_tacuba/guacamaya_tab.html ]
e--2--2--2--x--2--2--2--x--2--2--2--x---------------------------------|
B--0--0--0--x--0--0--0--x--0--0--0--x---------------------------------|
G--0--0--0--x--0--0--0--x--0--0--0--x---------------------------------|
D--2--2--2--x--2--2--2--x--2--2--2--x---------------------------------|
A--2--2--2--x--2--2--2--x--2--2--2--x---------------------------------|
E--0--0--0--x--0--0--0--x--0--0--0--x---------------------------------|

Riff

e--------------------7-10-10-7-10-7-10-7------------------------------|
B---5-7-7-5-8-7-8-7---------------------------------------------------|
G---------------------------------------------------------------------|
D---------------------------------------------------------------------|
A---------------------------------------------------------------------|
E---------------------------------------------------------------------|

Bridge

e---------------------------------------------------------------------|
B---7-7-7-7-7-7-7-----------------------------------------------------|
G---7-7-7-7-7-7-7-----------------------------------------------------|
D---7-7-7-7-7-7-7-----------------------------------------------------|
A---5-5-5-5-5-5-5-----------------------------------------------------|
E---------------------------------------------------------------------|

any comments/corrections contact me
Comments