Cafe Tacuba - Eres Chords & Tabs

 

Eres Chords & Tabs

Cafe Tacuba Chords & Tabs

Version: 1 Type: Tab 0 ratings
1 star 2 stars 3 stars 4 stars 5 stars
comments

Eres Tab

Song: Eres
Band: Cafe tacuba
Normal Tuning (EADGBE)
This song has 2 guitars (electroacustic and electric). Electric guitar is 
guitar 1 and electroacustic is guitar 2.

INTRO    Guitar 1
1-5--5-5--5------0-0-0-0---0-0-0--0-0-0-------------------------------------
2-5--5-5--5------0-0-0-0---5-5-5--5-5-5-------------------------------------
3-5----5--5---9----9-9-9---0-0-0--7-7-7-------------------------------------
4-5----5--5---9----9-9-9---7---7--6-6-6-----------------------------------x3
5-------------x------------6---6--7-7-7-------------------------------------
6-------------8------------7---7--------------------------------------------

Guitar 2
1-0-0-0-------0-0--0-0-0---0-0-0--0--0-0-----------------------------------
2-1-1-1-------1-1--1-1-1---0-0-0--0--0-0-----------------------------------
3-2-2-2-------2-2--2-2-2---1-1-1--1--1-1-----------------------------------
4-2---2-------2----2-2-2---2---2--0--0-0-----------------------------------
5-0---0-------3----3-3-3---2---2--2--2-2---------------------------------x2
6--------------------------0---0--0--0-0-----------------------------------

At third time guitar 2 goes like this
1------0-------------------------------------0------------------------------
2-----1----------------------------0-3-----------3--------------------------
3----2---------------------------1------1-----------------------------------
4---2---------------------------2---------2----------2----------------------
5-0------------------------0-1-2--------------------------------------------
6---------------------------------------------------------------------------
[ Tab from: http://www.guitartabs.cc/tabs/c/cafe_tacuba/eres_tab.html ]
VERSE  Guitar 2                           
1------0---0---------------------0-----0------------------------------------
2----1---1---1-----------0-3-------3----------------------------------------
3---2-----2------------1-----1-------1---(X2)-------------------------------
4--2------------------2--------2--------------------------------------------
5-0----3---------0-1-2------------------------------------------------------
6--------------------------0------------------------------------------------

Then it Plays this
1---1-------1-----0----3--0-------------0---0----------------------------
2-----3------3---------------------3-----3-------------------------------
3-------2------2------------------1--1----1------------------------------
4---0-----0---------------------2-----2----------------------------------
5-----------------------------2------------------------------------------
6----------------------------------0-------------------------------------

At second time of verse , guitar 1 enters playing the same as intro..

CHORUS   Guitar 1
1--5-5-5-5----0-0-0--0-0-0--0-0--0-0----------------------------------------
2--6-6-6-6----0-0-0--0-0-0--1-1--1-1----------------------------------------
3--7---7-7----1-1-1--1-1-1--2-2--2-2----------------------------------------
4--7---7-7----2---2--0-0-0--2-2--2-2----------------------------------------
5--5----------2---2--2-2-2--0-0--3-3----------------------------------------
6--5----------0---0--0-0-0--------------------------------------------------

Guitar 2 the same until last chord
1---------------------------------------------------------------------------
2---------------------------------------------------------------------------
3-4----5--------999---------------------------------------------------------
4-x----x--------999---------------------------------------------------------
5-2----3--------777---------------------------------------------------------
6---------------------------------------------------------------------------

NOTE: The duration of chords are not shown here, is just to give you and idea
of how  the rythmn pattern goes...

And thats all! the out bridge is the same as intro
Have fun 
Any comments to Kimahrironso@hotmail.com
Sl2 a pmc, ppp, and sophie liz and nelda that suggest me to play this song.
Comments