Cafe Tacuba - Como Te Extrao Chords & Tabs

 

Como Te Extrao Chords & Tabs

Cafe Tacuba Chords & Tabs

Version: 1 Type: Chords 0 ratings
1 star 2 stars 3 stars 4 stars 5 stars
comments

Como Te Extrao Chords

   
i'll like to introduce my self whit a mexican band called cafe tacuba
. i like this song
here it goes.


 E
 Como te extraño mi amor porque sera
  A
 me falta todo en la vida si no estas
  E
 Como te extraño mi amor que puedo hacer
  A                                     (Riff 1) x 4 veces
 te extraño tanto que voy a enloquecer.

 E
 A veces pienso que tu nunca vendras
  A
 pero te quiero y te tengo que esperar
  E
 este destino me lleva hasta el final
  A
 donde algun dia mi amor te encontrará

     E
 Ay amor divino
   A                   F#m  
 pronto tienes que volver    (Solo)


 E
 Como te extraño 
  A
 me falta todo en la vida si no estas
  E
 Como te extraño 
  A
 te extraño tanto que voy a enloquecer.   (Riff 2)

 E
 A veces pienso que tu nunca vendras
  A
 pero te quiero y te tengo que esperar
  E
 este detino me lleva hasta el final
  A
 donde algun dia mi amor te encontrara

      E
 Ay amor divino
    A                  F#m 
 pronto tienes que volver    


     A
 El dolor es fuerte lo soporto
                              B
 porque vivo pensando en tu amor
         A                    E  
 quiero verte tenerte y besarte
         B                 E
 y entregarte todo mi corazon.    (Riff 3)



 (Riff4) 

      E
 Ay amor divino
    A                  F#m 
 pronto tienes que volver

      E
 Ay amor divino
    A                  F#m 
 pronto tienes que volver  (Riff 1) hasta el final




GUitaR 1:

  E     A     B    F#   
                         
  7     5     7    2       
  7     5     7    2      
  9     6     8    2      
  9     7     9    4      
  7     7     9    4      
  7     5     7    2        
--------------------------------------------------------

Guitar 2:
 

Riff 1:
[ Tab from: http://www.guitartabs.cc/tabs/c/cafe_tacuba/como_te_extrao_crd.html ]
e|--------------------------
B|--------------------------
G|--8b9^^^^r8b9r8b9r8b9r8---
D|--------------------------
A|--------------------------
E|--------------------------



Solo:

e|-------9--7-7-7-----------------------------------------------
B|--9-10---------------------------------9--7-7-7-----7---------
G|-----------------------11--9-9-9---6-8------------9---9-6-----
D|------------------9-11------------------------------------9-9-
A|--------------------------------------------------------------
E|--------------------------------------------------------------


Riff 2:

e|-------12----   -----------------  --------------  -----------------------
B|--9s10----12-   -----------------  --------------  -----------------------
G|-------------   ---------9s12s9--  --------13----  --11s13s11-------------
D|-------------   --9s11s9---------  --9s11-----15-  ------------14--11--9--
A|-------------   -----------------  --------------  -----------------------
E|-------------   -----------------  --------------  -----------------------


Riff 3:

e|------------------------16-------16s0-16s0--16s0-16s0---
B|------------10s12s14-16----17---------------------------
G|-11s9-10s11---------------------------------------------
D|--------------------------------------------------------
A|--------------------------------------------------------
E|--------------------------------------------------------

e|--12h9-12------------------------16s0-16s0--16s0-16s0-----12h9-12------------------------
B|----------14-14-12-10--12-14-12-----------------------------------14-14-12-10--12-14-12--
G|-----------------------------------------------------------------------------------------
D|-----------------------------------------------------------------------------------------
A|-----------------------------------------------------------------------------------------
E|-----------------------------------------------------------------------------------------


Riff 4:

e|--16------12------14------12--
B|--16------12------14------12--
G|--16------12------14------12--
D|------------------------------
A|------------------------------
E|------------------------------

i hope you like it.
Comments