Cafe Tacuba - 24 Horas Chords & Tabs

 

24 Horas Chords & Tabs

Cafe Tacuba Chords & Tabs

Version: 1 Type: Tab 0 ratings
1 star 2 stars 3 stars 4 stars 5 stars
comments

24 Horas Tab

Band: Cafe Tacuba
Song: 24 Horas


tabbed by Jam9383@yahoo.com


Verse

overdub
e--13--10--12--10-10--------------------------------------------------|
B--13--10--12--10-10--------------------------------------------------|
G--14--10--13--10-10--------------------------------------------------|
D---------------------------------------------------------------------|
A---------------------------------------------------------------------|
E---------------------------------------------------------------------|

e--1--1-1-1---1--1-1-1------------------------------------------------|
B--1--1-1-1---1--1-1-1------------------------------------------------|
G--2--2-2-2---2--2-2-2------------------------------------------------|
D--1--1-1-1---1--1-1-1------------------------------------------------|
A--3--3-3-3---3--3-3-3------------------------------------------------|
E--1--1-1-1---1--1-1-1------------------------------------------------|

Bridge

with overdub on F
e--4--4-4-4---2--2-2-2---1--1-1-1---1--1-1-1--------------------------|
B--4--4-4-4---2--2-2-2---1--1-1-1---1--1-1-1--------------------------|
G--5--5-5-5---3--3-3-3---2--2-2-2---2--2-2-2--------------------------|
D--4--4-4-4---2--2-2-2---1--1-1-1---1--1-1-1--------------------------|
A--6--6-6-6---4--4-4-4---3--3-3-3---3--3-3-3--------------------------|
E--4--4-4-4---2--2-2-2---1--1-1-1---1--1-1-1--------------------------|

Chorus
[ Tab from: http://www.guitartabs.cc/tabs/c/cafe_tacuba/24_horas_tab.html ]
e--6--6-6-6---4--4-4-4---1--1-1-1---1--1-1-1--------------------------|
B--8--8-8-8---6--6-6-6---1--1-1-1---1--1-1-1--------------------------|
G--6--6-6-8---4--4-4-4---2--2-2-2---2--2-2-2--------------------------|
D--8--8-8-8---6--6-6-6---1--1-1-1---1--1-1-1--------------------------|
A--6--6-6-6---4--4-4-4---3--3-3-3---3--3-3-3--------------------------|
E------------------------1--1-1-1---1--1-1-1--------------------------|

Solo

e-13-12----12-13-12------13-13-13-13-12-10-12-----13-13-13-13-13------|
B-------13----------13------------------------13----------------------|
G---------------------------------------------------------------------|
D---------------------------------------------------------------------|
A---------------------------------------------------------------------|
E---------------------------------------------------------------------|

e-------------------------------13/-----------------------------------|
B--11-11-11-11-11-11-10-11-10-------13/-------------------------------|
G---------------------------------------------------------------------|
D---------------------------------------------------------------------|
A---------------------------------------------------------------------|
E---------------------------------------------------------------------|

Break

e---5--5-5-5---5--5-5-5---5--5-5-5---5--5-5-5-------------------------|
B---7--7-7-7---7--7-7-7---6--6-6-6---6--6-6-6-------------------------|
G---5--5-5-5---5--5-5-5---5--5-5-5---5--5-5-5-------------------------|
D---7--7-7-7---7--7-7-7---7--7-7-7---7--7-7-7-------------------------|
A---5--5-5-5---5--5-5-5---5--5-5-5---5--5-5-5-------------------------|
E---------------------------------------------------------------------|

any comments/corrections e-mail, Please rate
Comments