Caesars - Only You Chords & Tabs

 

Only You Chords & Tabs

Caesars Chords & Tabs

Version: 1 Type: Tab 0 ratings
1 star 2 stars 3 stars 4 stars 5 stars
comments

Only You Tab

	"Only You" by Caesars
 taken from the album "39 Minutes of Bliss (in an Otherwise Meaningless World)" 
 
 !!!all timings apply to album version of song!!!

 tabbed by Eviljoker7075 (www.surfinstan.com/sis)




 Intro & Chorus:                                   End chorus
                              
  E|---------------------------------------------||------------|
  B|--------2--------------------2---------2-----||--------2---|
  G|------2---4-4-2-4-4-4------2---4-4-2-4-------||------2---4-|
  D|--2-4------------------2-4---------------4-4-||--2-4-------|
  A|---------------------------------------------||------------|
  E|---------------------------------------------||------------|
   
 
 Verse:

  E|--2-2---4-4---5-5---7-7----|
  B|--4-4---4-4---5-5---7-7----|
  G|--4-4---6-6---6-6---8-8----|
  D|--2-2---6-6---7-7---9-9----| x4
  A|--2-2---4-4---7-7---9-9----|
  E|--2-2---------5-5---7-7----|


 Bridge:

  E|-----2-----2---------------|
  B|----3-----2----------------|
  G|---4-----2-----------------|
  D|--4-----4------------------| x2
  A|---------------------------|
  E|---------------------------|

 Lyrics/order:


[ Tab from: http://www.guitartabs.cc/tabs/c/caesars/only_you_tab.html ]
 *INTRO* (drums then riff)

  (I wanna go out honey) 


 *VERSE* (0:20)

  Baby you've got ears just like dumbo, it's so sweet
  Your knees knock together when you're walking down the street
  Your eyes never look in the same direction at the same time
  I don't think you're the smartest girl on the block, but I don't mind


 *BRIDGE* (0:44)

  Only you can reach my heart
  Only you and no one else


 *CHORUS* (0:52)

  Only you can reach my heart
  Only you can reach my heart


 *END CHORUS* (1:05)


 *VERSE* (1:09)

 Every time we go out people stop and stare, and they talk about us
 And they don't understand what we got, we've got true love baby
 We've synchronised our heart beats, yeah
 And we've got the same size in shoes, yes we do!


*BRIDGE* (1:33)

  Only you can reach my heart
  Only you and no one else


 *CHORUS* (1:41)

  Only you can reach my heart
  Only you can reach my heart   (continue and fade out)



The timing take a bit of getting used to, but once you've got the hang of it it's easy!!! Enjoy!

--------------------------

Please check out my website for lyrics, free legal mp3's and much much more!

www.surfinstan.com

Eviljoker7075
Comments