Caesars - Jerk It Out Chords & Tabs

 

Jerk It Out Chords & Tabs

Caesars Chords & Tabs

Version: 1 Type: Tab

Jerk It Out Tab

E|-----7---7-7-7-7----------6---4-4-4-4-|
B|-9-----9--------------7-----7---------|
G|--------------------------------------|
D|--------------------------------------|
A|--------------------------------------|
E|--------------------------------------|
[ Tab from: http://www.guitartabs.cc/tabs/c/caesars/jerk_it_out_tab.html ]
that's it

this is the the major part in the verse

E|----7--77---------6--44---------|
B|-9-----99------7-----77---------|
G|--------------------------------|
D|--------------------------------|
A|--------------------------------|
E|--------------------------------|