Cacophony - Speed Metal Symphony Chords & Tabs

 

Speed Metal Symphony Chords & Tabs

Cacophony Chords & Tabs

Version: 2 Type: Tab 0 ratings
1 star 2 stars 3 stars 4 stars 5 stars
comments

Speed Metal Symphony Tab

   
================================================================================
         Title : Speed Metal Symphony
        Artist : Cacophony
         Album : Speed Metal Symphony
Transcribed by : Dave Zatuchney Davedzny@aol.com
================================================================================

Legend
------

 h  = hammer-on
 p  = pull-off
 b  = bend
 r  = bend release
 /  = slide up/down
<5> = natural harmonic
[5] = artifical harmonic
 ~  = vibrato
 tr = trill



This is the first big sweep at around 35 seconds into the song.
[ Tab from: http://www.guitartabs.cc/tabs/c/cacophony/speed_metal_symphony_tab_ver_2.html ]
E|-----------------------------------8h12p8-------------------------8h12/
B|-----------10-------------------10--------10-------------------10------
G|---------9----9---------------9--------------9---------------9---------
D|------10--------10---------10------------------10---------10-----------
A|-7h12--------------12-7h12------------------------12-7h12--------------
E|-----------------------------------------------------------------------


E|-17----------------------------12h17/20--20~|-
B|----14----------------------14--------------|-
G|-------14----------------14-----------------|-
D|----------14----------14--------------------|-
A|-------------16-12h16-----------------------|-
E|--------------------------------------------|-
Comments