Cachorro Grande - Desentoa Chords & Tabs

 

Desentoa Chords & Tabs

Cachorro Grande Chords & Tabs

Version: 1 Type: Bass Tab 0 ratings
1 star 2 stars 3 stars 4 stars 5 stars
comments

Desentoa Bass Tab

Banda : Cachorro Grande
Música : Desentoa
Álbum : Pista Livre  (2005)
Baixista : Rodolfo Kruger

Comentários: Esta tablatura está 90% correta.
Só tenho dúvida no final do refrão. hehe.
Bom, aproveitem à bem.



Intro

G|----------------------------------------------------------------------------------------|
D|-------------------------------------------------------4/5-----5\4-----4/5-----5\4------|  Repetir 1x
A|---------------------------------------------------3-3-----3-3-----3-3-----3-3----------|
E|-12-12-14-14-15-15-14-14-12-12--17-17-15-15-14-14---------------------------------------|


Verso

G|------------------------------------------------------|
D|------------------------------------------------------| Repetir 3x
A|-7-7--7-7--7-7--7-7--7\-3-3-0-3-3-0-3-3-0-3-3-3/-7----|
E|----7----7----7---------------------------------------|

Refrão

G|---------------------------------------------------|
D|--------------------------------2-1----------------|
A|---3~~--------------1/3-3-3-3-3-----3-2-1----------|
E|-------------12~~-------------------------3-2-1----|



Pós-Refrão
[ Tab from: http://www.guitartabs.cc/tabs/c/cachorro_grande/desentoa_btab.html ]
G|----------------------------------------------------------------------------------------|
D|-------------------------------------------------------4/5-----5\4-----4/5-----5\4------|  Repetir 1x
A|---------------------------------------------------3-3-----3-3-----3-3-----3-3----------|
E|-12-12-14-14-15-15-14-14-12-12--17-17-15-15-14-14---------------------------------------|


  Solo

G|------------------------------------------------------|
D|------------------------------------------------------| Repetir 1x
A|-7-7--7-7--7-7--7-7--7\-3-3-0-3-3-0-3-3-0-3-3-3/-7----|
E|----7----7----7---------------------------------------|

Refrão

G|---------------------------------------------------|
D|--------------------------------2-1----------------|
A|---3~~--------------1/3-3-3-3-3-----3-2-1----------|
E|-------------12~~-------------------------3-2-1----|


Solo 2

G|----------------------------------------------------------------------------------|
D|--------------------------2-1-0-----------------------0-1-------------------------|
A|--3-3-0-3-3-0-3-3-0-3-3-3-------3-2-0-----------0-2-3-------3-3-0-3-3....---------|
E|--------------------------------------3-2-0-2-3-----------------------------------|

O reso da música (na versão do CD) fica só nisso, mas ao vivo para terminar a música
o Rodolfo faz o seguinte :

G|---------------------------------------------------------|
D|---------------------------------------------------------|
A|--3-3-0-3-3-0-3-3-0-3---3/7~~----------------------------|
E|---------------------------------------------------------|


MY MSN ; leo_londoncalling@hotmail.com
Comments