Cabrera Ryan - On The Way Down Chords & Tabs

 

On The Way Down Chords & Tabs

Cabrera Ryan Chords & Tabs

Version: 1 Type: Tab 3 ratings
1 star 2 stars 3 stars 4 stars 5 stars
comments

On The Way Down Tab

Ryan Cabrera
"On the Way Down"
Take It All Away
Release: August 17, 2004
Tabbed by: Dave Cenaffra 
July 27th, 2004


since everyone seems to want this tab...here it is....
for timing...check out ryan's site...ryancabrera.com...under media,
check out his studio performance of "on the way down"...
and keep on look out for dave cenaffra....

tune half step down..


here are the chords for the intro and verse:

--0-----0----0----0-------II--------0----------------------
--0-----0----0----0-------II--------0----------------------
--11----9----9----9-------II--------1----------------------
--11---11---11---11-------II--------2----------------------
--9----x----12---11-------II--------2----------------------
--x----10---0----x--------II--------0----------------------
                                (TOOK A DIVE AND...)


chorus:

[ Tab from: http://www.guitartabs.cc/tabs/c/cabrera_ryan/on_the_way_down_tab.html ]
--2---0---0---0----------------
--2---3---2---0----------------
--2---2---2---1----------------
--4---0---2---2----------------
--4---0---0---2----------------
--2-----------0----------------



breakdown (and i was so afraid...):


--0----0---0---0--------------------------------
--0----3---0---3--------------------------------
--1----2---4---2--------------------------------
--2----0---4---0--------------------------------
--2----0---2---0--------------------------------
--0--------x------------------------------------


(but now the weight of the world...)

--0--0--0--0----
--0--0--3--0----
--2--1--2--1----
--4--2--0--2----
--4--2--0--2----
--x--0-----0----



(down down down...)

--0---0---0------II---------------0---0----XX-------
--0---0---3------II---------------0---3----XX-------
--2---1---2------II---------------1---2----XX-------
--4---2---x------II---------------2---0----XX-------
-----------------II---------------2---0----XX-------
-----------------II---------------0--------XX-------

                         (you're all i needed..)




just put it all together...u got it....rock on!!!
ryan rules...

check out davecenaffra.com in upcoming weeks...it will be up...
thanks alot....
Comments