Cab Callaway - Birdland Chords & Tabs

 

Birdland Chords & Tabs

Cab Callaway Chords & Tabs

Version: 1 Type: Tab 1 rating
1 star 2 stars 3 stars 4 stars 5 stars
comments

Birdland Tab

Intro
E|--------------------------------------------------------------------------|
B|---------------------10b-10b10-10-8~---8~-----8-10-10b-10~-8~-----8~------|
G|-------------------------------------9----9-------------------9-7---------|
D|--------------5-----------------------------------------------------------|
A|-2-3-5--2-3-5-------------------------------------------------------------|
E|--------------------------------------------------------------------------|

E|-------------------------------------------------------|
B|---10b-10b10-10-8~---8~-----8-10-10b-10~-8~------------|
G|-------------------9----9-------------------9-7--------|
D|------------------------------------------------/9~----|
A|-------------------------------------------------------|
E|-------------------------------------------------------|

Dramatic Horn Riff
E|--------------------------------------------------------|
B|---11-10-10--10-8-8--10--------10-8-8---10-8-8--11-10~--|
G|------------------------10-10---------------------------|
D|--------------------------------------------------------|
A|--------------------------------------------------------|
E|--------------------------------------------------------|

E|----------------------------|
B|---10-11-12----11-10~-------|
G|-12---------12--------------|
D|----------------------------|
A|----------------------/10---|
E|----------------------------|



Build-up
E|------------------------------------------------/13~~---|
B|--/12-12~-----13-15-15~~----/12-12~----13----15---------|
G|-----------12-----------------------12----12------------|
D|--------------------------------------------------------|
A|--------------------------------------------------------|
E|--------------------------------------------------------|
[ Tab from: http://www.guitartabs.cc/tabs/c/cab_callaway/birdland_tab.html ]
Mian Theme
E|-------------------------------------------------------------|
B|--/12~-15----------12------/15~---13p12----------/12~-15-----|
G|----------12--/14~----12----------------14-12~-----------12--|
D|-------------------------------------------------------------|
A|-------------------------------------------------------------|
E|-------------------------------------------------------------|

E|-------------------------------------------------15\---------12\|
B|---------12-----/15~---13h15-12----------/12~-15----------12----|
G|----/14~----12------------------12~------------------/14~-------|
D|----------------------------------------------------------------|
A|----------------------------------------------------------------|
E|----------------------------------------------------------------|

E|-------------------------------------15\----------12\|
B|---17\15~---13p12------------/12~-15-----------12----|
G|-----------------14-12~------------------/14~--------|
D|-----------------------------------------------------|
A|-----------------------------------------------------|
E|-----------------------------------------------------|

E|----------------------------|
B|---/15~--13h15-12-----------|
G|------------------12-/12~---|
D|----------------------------|
A|----------------------------|
E|----------------------------|

Decending Riff
E|-------------------------------|
B|--/18-17-16-15-14-13-12--------|
G|------------------------12-----|
D|-------------------------------|
A|-------------------------------|
E|-------------------------------|

Breakdown Licks
E|-------------------------------------|
B|------8-10-10-11-11------8--11p8~~---|
G|--7h9----------------7h9-------------|
D|-------------------------------------|
A|-------------------------------------|
E|-------------------------------------|

E|-------------------------------------|
B|----11-11---10--9--8-----------------|
G|-------------------------------------|
D|-------------------------------------|
A|-------------------------------------|
E|-------------------------------------|
 
yep a big fan of this song ....
--chris
Comments