C21 - Biatch Chords & Tabs

 

Biatch Chords & Tabs

C21 Chords & Tabs

Version: 1 Type: Tab 0 ratings
1 star 2 stars 3 stars 4 stars 5 stars
comments

Biatch Tab

   
Song Title: Som Fuglene
Written by: Jamm
Denmark: Tondern


  Intro and Vers:   
[ Tab from: http://www.guitartabs.cc/tabs/c/c21/biatch_tab.html ]
      D              Dmaj            G              A
E-----2-------|-------2-------|------3-------|------0--------|--------
B-----3-------|-------2-------|------0-------|------2--------|--------
G-----2-------|-------2-------|------0-------|------2--------|--------
D-----0-------|-------0-------|------0-------|------2--------|--------
A-----*-------|-------*-------|------2-------|------0--------|--------
E-----*-------|-------*-------|------3-------|------*--------|--------
Repeat 2*


Chorsor:


      G              A               D              G
E-----3-------|------0--------|------2-------|------3------|--------
B-----0-------|------2--------|------3-------|------0------|--------
G-----0-------|------2--------|------2-------|------0------|--------
D-----0-------|------2--------|------0-------|------0------|--------
A-----2-------|------0--------|------*-------|------2------|--------
E-----3-------|------*--------|------*-------|------3------|--------

Its my first tab... if you have problems then writhe me:
Gooby666@hotmail.com
Comments