Byrds - Turn Turn Turn Chords & Tabs

 

Turn Turn Turn Chords & Tabs

Byrds Chords & Tabs

Version: 2 Type: Tab 0 ratings
1 star 2 stars 3 stars 4 stars 5 stars
comments

Turn Turn Turn Tab

   
##################################################################################
# This file is the author's own work and represents their interpretation of the  #
# song. You may only use this file for private study, scholarship, or research.  #
##################################################################################

TURN! TURN! TURN! 
        
by The Byrds

Album: Turn! Turn! Turn! (1966)


    
INTRO:

                        Bm    A                                 Bm   A  
E--------------------|--2-----0-----------|--------------------|-2---0---|
B-----3--------------|--3-----2-----------|-----3--------------|-3---2---|
G---2----------------|--4-----2-----------|---2----------------|-4---2---|
D-0-----2------------|--4-----2-----------|-0------2-----------|-4---2---|
A--------------------|--------------------|--------------------|---------|
E--------------------|--------------------|--------------------|---------|
[ Tab from: http://www.guitartabs.cc/tabs/b/byrds/turn_turn_turn_tab_ver_2.html ]
                        Bm    A                                 Bm   A  
E--------------------|--2-----0-----------|--------------------|-2---0---|
B-----3--------------|--3-----2-----------|-----3--------------|-3---2---|
G---2----------------|--4-----2-----------|---2----------------|-4---2---|
D-0-----2------------|--4-----2-----------|-0------2-----------|-4---2---|
A--------------------|--------------------|--------------------|---------|
E--------------------|--------------------|--------------------|---------|

                                             Bm    A
E--------------------|--------------------|--2-----0-----------|---------|
B-----3------------3-|-------3---------0--|--3-----2-----------|---------|
G---2-----------0----|----2----------0----|--4-----2-----------|---------|
D-0----------2-------|-4----------5-------|--4-----2-----------|---------|
A--------------------|--------------------|--------------------|---------|
E--------------------|--------------------|--------------------|---------|

                                             Bm    A
E--------------------|--------------------|--2-----0-----------|---------|
B-----3------------3-|-------3---------0--|--3-----2-----------|---------|
G---2-----------0----|----2----------0----|--4-----2-----------|---------|
D-0----------2-------|-4----------5-------|--4-----2-----------|---------|
A--------------------|--------------------|--------------------|---------|
E--------------------|--------------------|--------------------|---------|



All the best... Roger (as in McGuinn, the original 12-stringer for the Byrds!) 

mcguinn@ix.netcom.com           

                             
Comments