Byrds - My Back Pages Intro Solo Chords & Tabs

 

My Back Pages Intro Solo Chords & Tabs

Byrds Chords & Tabs

Version: 1 Type: Tab 0 ratings
1 star 2 stars 3 stars 4 stars 5 stars
comments

My Back Pages Intro Solo Tab

   
##################################################################################
# This file is the author's own work and represents their interpretation of the  #
# song. You may only use this file for private study, scholarship, or research.  #
##################################################################################

the Byrds - My Back Pages

(12 str)

intro  
(riff 1)
E      E6sus4 
------------------------------
----------0-------------------
-------2----2---------2-----2-
-----2-2------2-----2-2-0-----
---2---4----------2---4---4---
-0-----0--------0-----0-------

verse: "crimson flames tied through my ears..."
[ Tab from: http://www.guitartabs.cc/tabs/b/byrds/my_back_pages_intro_solo_tab.html ]
chorus
      E             A     E
ah but i was so much older then
    A      Bsus4     E(w/riff 1)  
im younger than that now

solo
----------------------------------------
----------------------------------------
-9-9-9-8-6-6--------------6--6-6--------
--------------9-9-9---9-9---------9-9-9-
----------------------------------------
----------------------------------------

-----------------------------------------------
-------7--7-7s9-9-9--9s10-10-10--9--7----------
-9-9-9---------------------------------9-9-6---
---------------------------------------------9-
-----------------------------------------------
-----------------------------------------------

---------------------------------------
-----7---------------------------------
-9-9----9-9-8--6-------6-----6-----6---
------------------9--6---9-6---9-6---9-
---------------------------------------
---------------------------------------
Comments