Byrd Tracy - Keeper Of The Stars Chords & Tabs

 

Keeper Of The Stars Chords & Tabs

Byrd Tracy Chords & Tabs

Version: 1 Type: Tab 0 ratings
1 star 2 stars 3 stars 4 stars 5 stars
comments

Keeper Of The Stars Tab

#----------------------------------PLEASE NOTE---------------------------------#
#This file is the author's own work and represents their interpretation of the #
#song. You may only use this file for private study, scholarship, or research. #
#------------------------------------------------------------------------------#
#
From: rob_sticka@ccmail.gsfc.nasa.gov
Date: Fri, 19 Jan 96 11:06:42 EST
Subject: Tab:  Keeper of the Stars / Tracy Byrd

                                          KEEPER OF THE STARS

                                               TRACY BYRD

this is the acoustic guitar part only - the slide parts are not included
I think this is pretty accurate but I know there are a few simplifications I made.
This song holds up well as a solo acoustic piece.  I performed it at a wedding solo 
and it turned out very well.

---------0-h-2-----0------2-po-0------------------------2-------
-----3---------3-----3-----------3---------3--------3-----3-----
---2---2---------2-----------------2-----0---0----2---2-----2---
-0----------------------0--------------0--------0-------------0-
-------------------------------------0--------------------------
----------------------------------------------------------------
                                                      It was no


-------------------------------------------------------------
---------2-----------------3---------------------------------
-----2-----2---------4---4---4------------0------------------
---2---2-----2-0---4---4-------4--------0---0---2-4-5-2------
-0---------------2----------------2-0------------------------
--------------------------------------3----------------------
accident              me finding you


[ Tab from: http://www.guitartabs.cc/tabs/b/byrd_tracy/keeper_of_the_stars_tab.html ]
-------------------------2----------------0-----------------
---------------------3--3--3----------0-----0---------------
-----------0---0---2---2-----2------0---0-----0-------------
-----0-------0---0-------------0--2-------------2-----------
---0---0----------------------------------------------------
-3-------3--------------------------------------------------
                  


---------------------------2---------------------------------
-----------2-3-5-2-----3-----3--------------2----------------
-----2---------------2---2-----2--------2-----2--------------
---2---2-----------0-------------0----2---2-----2-0----------
-0-------0--------------------------0------------------------
-------------------------------------------------------------

--------------------------------------------------3--------
-----------3-----------------3----------------0-----0------
-----4---4---4-----------0-----0-------0--------0-----0----
---4---4-------4-------0---0-----0-h-2------0--------------
-2---------------2-0---------------------------------------
---------------------3--------------------3----------------
        you're in my life                   heaven's smilin'


-----------2-po-0----------------0--------------------0---0--
-----3---3--------3---3------0-----0--------------2-----3-2--
---2---2------------2------0---0-----0--------2-----2-----2--
-0-----------------------2-------------2----2---2---------2--
------------------------------------------0---------------0--
-------------------------------------------------------------



riff 1                           
------2po0-------------------------------------------------
-----------3----------3-----------------------------------
-------------2------0---0---------------------------------
--0---------------0--------------------------------------
----------------0---------------------------------------
-------------------------------------------------------
The second verse is very similar to the first and is even simplified in a few places.
Play the same picking pattern as the first verse.

riff 1 again but add a D chord slow strum at the end

Rob Sticka


Comments