Buzzcocks - Fast Cars Chords & Tabs

 

Fast Cars Chords & Tabs

Buzzcocks Chords & Tabs

Version: 1 Type: Tab 0 ratings
1 star 2 stars 3 stars 4 stars 5 stars
comments

Fast Cars Tab

   
Title: Fast cars
Artist: The Buzzcocks
Album: Another music in a different kitchen
Instrument: Guitar
Tuning: Standard (E A D G B E)


intro (guitar 1)
E|1-----------4---|6-----------4---|8---------------|8---------------||
B|1-----------4---|6-----------4---|8---------------|8---------------||
G|2-----------5---|7-----------5---|9---------------|9---------------||
D|3-----------6---|8-----------6---|10--------------|10--------------||
A|3-----------6---|8-----------6---|10--------------|10--------------||
E|1-----------4---|6-----------4---|8---------------|8---------------||
  F           G#   A#          G#   C                C            X2
E|9---------------|9---------------|8---------------|8---------------||
B|9---------------|9---------------|8---------------|8---------------||
G|10--------------|10--------------|9---------------|9---------------||
D|11--------------|11--------------|10--------------|10--------------||
A|11--------------|11--------------|10--------------|10--------------||
E|9---------------|9---------------|8---------------|8---------------||
  C#               C#               C                C
E|9---------------|7---------------|7---------------|7---------------||
B|11--------------|9---------------|7---------------|7---------------||
G|11--------------|9---------------|8---------------|8---------------||
D|11--------------|9---------------|9---------------|9---------------||
A|9---------------|7---------------|9---------------|9---------------||
E|----------------|----------------|7---------------|7---------------||
  F#               E                B                B
  (guitar 2)
E|----------------||
B|--13--13--13--13||
G|10--10--10--10--||
D|----------------||
A|----------------||
E|----------------|| X7
[ Tab from: http://www.guitartabs.cc/tabs/b/buzzcocks/fast_cars_tab.html ]
E|----------------||
B|12--------------||
G|----------------||
D|----------------||
A|----------------||
E|----------------|| X1
  B

intro 2 & verse
E|1-----6------4--|4---------------|1-----8------6--|6---------------||
B|1-----6------4--|4---------------|1-----8------6--|6---------------||
G|2-----7------5--|5---------------|2-----9------7--|7---------------||
D|3-----8------6--|6---------------|3-----10-----8--|8---------------||
A|3-----8------6--|6---------------|3-----10-----8--|8---------------||
E|1-----6------4--|4---------------|1-----8------6--|6---------------||
  F     A#     G#  G#               F#    C      A#  A#


Chorus
E|2-------1-2-----|1-2----------8--|6-------5-6-----|5-6-------------||
B|2-------1-2-----|1-2----------8--|6-------5-6-----|5-6-------------||
G|3-------2-3-----|2-3----------9--|7-------6-7-----|6-7-------------||
D|4-------3-4-----|3-4----------10-|8-------7-8-----|7-8-------------||
A|4-------3-4-----|3-4----------10-|8-------7-8-----|7-8-------------||
E|2-------1-2-----|1-2----------8--|6-------5-6-----|5-6-------------||
  F#      F F#     F F#         C   A#      A A#     A A#


E|2-------1-2-----|1-2-------------|9---------------|--------6-------||
B|2-------1-2-----|1-2-------------|9---------------|--------6-------||
G|3-------2-3-----|2-3-------------|10--------------|--------7-------||
D|4-------3-4-----|3-4-------------|11--------------|--------8-------||
A|4-------3-4-----|3-4-------------|11--------------|--------8-------||
E|2-------1-2-----|1-2-------------|9---------------|--------6-------||
  F#      F F#     F F#             C#                       A#

Intro 1 (the same as another buzzcocks song Boredom)
Intro 2
verse
chorus
verse
chorus
intro 2
verse
chorus x2 
end A#

Comments