Buzzcocks - Ever Fallen In Love Chords & Tabs

 

Ever Fallen In Love Chords & Tabs

Buzzcocks Chords & Tabs

Version: 1 Type: Tab 0 ratings
1 star 2 stars 3 stars 4 stars 5 stars
comments

Ever Fallen In Love Tab

TABBED BY ramones1314 b=bend
[ Tab from: http://www.guitartabs.cc/tabs/b/buzzcocks/ever_fallen_in_love_tab.html ]
(    BARRE CHORDS                                        )                  
e-9--9--9--9--9--9--9--7-7-7---9--9--9--9--9--9--9--7-7-7
B-9--9--9--9--9--9--9--8-8-8---9--9--9--9--9--9--9--8-8-8
G-9--9--9--9--9--9--9--9-9-9---9--9--9--9--9--9--9--9-9-9
D-11-11-11-11-11-11-11-9-9-9---11-11-11-11-11-11-11-9-9-9
A-11-11-11-11-11-11-11-7-7-7---11-11-11-11-11-11-11-7-7-7
E-9--9--9--9--9--9--9--7-7-7---9--9--9--9--9--9--9--7-7-7 

e---------------------------------------
B---------------------------------------
G---------9b--------9b--------9b------9b
D---11-11--------11------11-11-----11---
A-11----------11-------11--------11-----
E---------------------------------------
Comments