Buzzcocks - Autonomy Chords & Tabs

 

Autonomy Chords & Tabs

Buzzcocks Chords & Tabs

Version: 2 Type: Tab 0 ratings
1 star 2 stars 3 stars 4 stars 5 stars
comments

Autonomy Tab

   
#----------------------------------PLEASE NOTE--------------------------------#
#This file is the author's own work and represents their interpretation of the#
#song. You may only use this file for private study, scholarship, or research.#
#-----------------------------------------------------------------------------#

Date: Sun, 26 Apr 1998 18:42:15 -0500
From: SNOTHANSON 
Subject: b/buzzcocks/autonomy.crd

Song: Autonomy
Artist: Buzzcocks
Album: Another Music in a Different Kitchen, Singles Going Steady
Chord chart by: scott hanson (snothanson@yahoo.net)

This is a great song from the masters of Brit-punk guitar.
It contains two great riffs. 


Riff 1- Each cord is played as a triplet
[ Tab from: http://www.guitartabs.cc/tabs/b/buzzcocks/autonomy_tab_ver_2.html ]
 F   F   Eb  D    C   Bb  F   
|----------------|----------------|
|----------------|----------------|
|----------------|----------------|
|3---15--13--11--|10--8---3---3---|
|3---15--13--11--|10--8---3---3---|
|1---13--11--9---|8---6---1---1---|






Riff 2- played over the chorus, and used as the coda
                                                                          

F#                 Ab                Bb
|--------|--------|--------|--------|--------|--------|--------|--------|
|--------|--------|--------|--------|--------|--------|--------|--------|
|--------|--------|--------|--------|--------|--------|--------|--------|
|--------|--------|--------|--------|--------|--------|--------|--------|
|----4---|-----4--|----6---|----6---|----8---|----8---|----8---|----8---|
|2-22--2-|2222--2-|4-44--4-|4444--4-|6-66--6-|6666--6-|6-66--6-|6666--6-|



I would love to see someone with a better ear than I Tab out the solo 
over the coda and the fills before each chorus. And someone please help
with the lyrics!

Thanks!
-- 
Scott Hanson
snothanson@prodigy.net


Comments