Butthole Surfers - Sea Ferring Chords & Tabs

 

Sea Ferring Chords & Tabs

Butthole Surfers Chords & Tabs

Version: 1 Type: Bass Tab 0 ratings
1 star 2 stars 3 stars 4 stars 5 stars
comments

Sea Ferring Bass Tab

   
Butthole Surfers
SEA FERRING

Bass tab by Chris Lawrence

G-----------------------
D-----------------------
A-2--2-2-2--2(br)--etc.- (br) -> bend note up then release
E-----------------------

then:

G--------------------------------
D--------------------------------
A------------0-2---2-2-2--2(br)--
E--0--0-0-0----------------------

Verse:
[ Tab from: http://www.guitartabs.cc/tabs/b/butthole_surfers/sea_ferring_btab.html ]
G------------------------------------------------------
D------------------------------------------------5-5-5-
A-------------0-2---2-2--3-3-2-2-0--0-0----------------
E--0---0-0-0------------------------------3-3-3--------

Repeated part:

G-----------
D-----------
A-----------
E--2-2-2-2--

End:

G
D
A--2---
E

Chris Lawrence (mustang@islandnet.com)


Comments