Butterfly Effect - Filling Silence Chords & Tabs


Filling Silence Chords & Tabs

Butterfly Effect Chords & Tabs

Version: 1 Type: Tab 0 ratings
1 star 2 stars 3 stars 4 stars 5 stars

Filling Silence Tab

Artist: The Butterfly Effect
Song: Filling Silence
Written by: B Hall, C Boge, K Goedhart, G Esmond
Taken from: 'Begins Here' LP

- I've noticed this site doesn't have any tabs for this great Oz band, so I guess I'll
get the ball rolling. TBe are a terrific band and I suggest anyone and everyone to have
a listen to them. A couple of their songs are available for download at their site,
www.thebutterflyeffect.com.au, unfortunately not this one.

Note: My first time tabbing so there may be errors, and if there is, I am only human.
This song is quite possibly the standout on the album (apart from A.D and Without Wings),
this being the reason why I have tabbed it out. The other reason being is that no other
tab is on the net, so I thought I'd have a crack at it. The last part of the Chorus I'm
not to clear on, but you can get away with what's there. Anyway, enjoy the tune, enjoy
the tab, most of all enjoy music, because that's what it is there for.



P.S There is no country like Australia

Tuning: C G C F A D


h	Hammer
p	Pull off
/	Slide up
\	Slide Down
x or .	Mute

- Timing is not shown


D ---------------------------------|------------------------------------------|
A ---------------------------------|------------------------------------------|
F --9-9-9---9-9-9---9-9-9---9-9-9--|-10-10-10--10-10-10--10-10-10--10-10-10---|
C --0-0-0---0-0-0---0-0-0---0-0-0--|--0--0--0---0--0--0---0--0--0---0--0--0---|
G --0-0-0---0-0-0---0-0-0---0-0-0--|--0--0--0---0--0--0---0--0--0---0--0--0---|
C --0-0-0---0-0-0---0-0-0---0-0-0--|--0--0--0---0--0--0---0--0--0---0--0--0---|

Repeat as many times as necessary


D ---------------------|------------------|
A ---------------------|------------------|
F ---------------------|-------5----------|
C --8p7-7h8-3h5-0--7--|--------------0---|
G --8p7-7h8-3h5-0--7--|----3-------0-----|
C --8p7-7h8-3h5-0--7--|--3-------0-------|

         X 4                   X 4

[ Tab from: http://www.guitartabs.cc/tabs/b/butterfly_effect/filling_silence_tab.html ]
Chorus (slight variation with the first part of the Chorus being played 8 times at the
end of the first time through - may sound confusing, but listen to the CD, you'll know
what I mean)

Middle Bit

D -------------------------------------|
A -------------------------------------|
F --9-9-9-9-9--10-10-10-10--7-7-7-7-7--|
C -------------------------------------|
G -------------------------------------|
C -------------------------------------|

(Just play around with the notes above, with the right effect, something like that should pass)


D --------------------------------------------------------------------|
A --------------------------------------------------------------------|
F --7---7-----9---9----10---10----12---12----14-14-14-14-14-14-14-14--|
C --0---0-----0---0-----0----0-----0----0-----0-0--0--0--0--0--0--0--|
G --0---0-----0---0-----0----0-----0----0-----0-0--0-0--0--0--0--0--|
C --0---0-----0---0-----0----0-----0----0-----0--0--0--0--0--0--0--0--|

                                X 2

Bridge 2

D --------------------------------|
A --------------------------------|
F ----------------------10-10-10--|
C --7---5---3---8--8--8--8--8--8--|
G --7---5---3---8-8--8--8--8--8--|
C --7---5---3---8--8-8--8--8--8--|

             X 4


D --------------|--------------------|--------------|
A --------------|--------------------|--------------|
F --------------|--------------------|--------------|
C --0--7h8-7h8--|--0xxxx0xxxx0xxxx0--|--0--7h8-7h8--|
G --0--7h8-7h8--|--0xxxx0xxxx0xxxx0--|--0--7h8-7h8--|
C --0--7h8-7h8--|--0xxxx0xxxx0xxxx0--|--0--7h8-7h8--|

      X 4          (With Wah Effect)       X 8

Outro 2

D --------------------------------|
A --------------------------------|
F --9-9-9--9-9-9--9-9-9--9-9-9-0--|
C --0-0-0--0-0-0--0-0-0--0-0-0-0--|
G --0-0-0--0-0-0--0-0-0--0-0-0-0--|
C --0-0-0--0-0-0--0-0-0--0-0-0-0--|

Any questions just email me at Effected1@hotmail.com.

If other people are going to put this on other sites, can you please email me first. I
won't have a problem with it, it would be nice to know if someone likes my tab, that's all.