Butch Walker - Alicia Amnesia Chords & Tabs

 

Alicia Amnesia Chords & Tabs

Butch Walker Chords & Tabs

Version: 1 Type: Tab 0 ratings
1 star 2 stars 3 stars 4 stars 5 stars
comments

Alicia Amnesia Tab

   
I don't have the solo down yet but as i i have it you'll get it

Drop D tuning
   key:
       p=pull off
       x=muffled strings
       /=slide up
       \=slide down
       p.m.|....|=palm mute

   Intro (guitar 1)
E|-----------------------------|---------x------------------|
B|-----------------------------|---------x------------------|
G|-----------------------------|---------x------------------|
d|-----------------------------|-5-5-5-5-x-5-5-5-5----------|
A|-7p5-7p5-7-7p5-7p5-7/9-7-5-0-|-5-5-5-5-x-5-5-5-5----------|
D|-----------------------------|-5-5-5-5-x-5-5-5-5--5///\\\-|
                            (2X)                           [2x]
   (guitar 2 comes in the second time around)
E|-------------------------------------|
B|-------------------------------------|
G|-------------------------------------|
d|-------------------------------------|
A|-10p9-10p9-10-10p9-10p9-10\12-10-9-0-|
D|-------------------------------------|

    Verse
E|---------------------------------x-------------------------------|
B|---------------------------------x-------------------------------|
G|---------------------------------x-------------------------------|
d|-------------------------5-5-5-5-x-5-5-5-5-----------------------|
A|---------5-5-5-5-5-5-5-5-5-5-5-5-x-5-5-5-5-5/7\5-5-5-5-5-5-5-5-5-|
D|-5///\\\-0-0-0-0-0-0-0-0-5-5-5-5-x-5-5-5-5-------0-0-0-0-0-0-0-0-|
      P.M.|...............|                       |...............|
[ Tab from: http://www.guitartabs.cc/tabs/b/butch_walker/alicia_amnesia_tab.html ]
E|---------x---------|
B|---------x---------|
G|---------x---------|
d|-5-5-5-5-x-5-5-5-5-|
A|-5-5-5-5-x-5-5-5-5-|
d|-5-5-5-5-x-5-5-5-5-|

    Pre-Chorus
E|-----------------------------------------------------------|
B|-----------------------------------------------------------|
G|-------7-7-7-----------------------------------------------|
d|-7-7-7-7-7-7-7-7--x-4-x-5-x-6-x-7-7-7--x-x-x-7-7-7-5-5-5-7-|
A|-7-7-7-5-5-5-7-7--x-4-x-5-x-6-x-7-7-7--5-5-5-7-7-7-5-5-5-7-|
D|-7-7-7-0-0-0-7-7--x-4-x-5-x-6-x-7-7-7--0-0-0-7-7-7-5-5-5-7-|
                                  p.m.|.....................|
                        Chorus
E|---------------------|---------------|
B|---------------------|---------------|
G|---------------------|-7--7--4-------|
d|---x-x-x-7-7-7-5-5-5-|-7--7--4--7--5-|
A|---5-5-5-7-7-7-5-5-5-|-5--4--2--7--5-|
D|---0-0-0-7-7-7-5-5-5-|-0--------7--5-|
p.m.|.................|

    Second Verse
E|-------------------------------x------------------------------------|
B|-------------------------------x------------------------------------|
G|-------------------------------x------------------------7\6-6/7-7-7-|
d|-----------------------5-5-5-5-x-5-5-5-5----------------x-x-x-x-x-x-|
A|-7/9\7-5-5-5-5-5-5-5-5-5-5-5-5-x-5-5-5-5-7/9\7--5-5-5-5-5\4-4/5-5-5-|
D|-------0-0-0-0-0-0-0-0-5-5-5-5-x-5-5-5-5--------0-0-0-0-0-0-0-0-0-0-|
    p.m.|...............|                        |.......|

E|---------x---------|
B|---------x---------|
G|---------x---------|
d|-5-5-5-5-x-5-5-5-5-|
A|-5-5-5-5-x-5-5-5-5-|
d|-5-5-5-5-x-5-5-5-5-|

Figure out the order for yourself.
Comments