Busted - Whos David Chords & Tabs

 

Whos David Chords & Tabs

Busted Chords & Tabs

Version: 2 Type: Tab 0 ratings
1 star 2 stars 3 stars 4 stars 5 stars
comments

Whos David Tab

   
Hello, I used to play this song with a cappo, but then I saw them play it and they
didn't use one, so I just worked it out. I think it's perfecto! Steve P

Intro

E---------------------------------|
B--10-----10-------9------9-------|        X2
G-----9-------9-------9-------9---|
D---------------------------------|
A---------------------------------|
E---------------------------------|


E-----------------------------------|
B---7-----7---9---10---9----7----9--|
G------9----------------------------|
D-----------------------------------|
A-----------------------------------|
E-----------------------------------|

[ Tab from: http://www.guitartabs.cc/tabs/b/busted/whos_david_tab_ver_2.html ]
E (7th fret)     B                   A

You've always been this way since high school

B

Flirtacious and quite loud...


C# (but instead of on 4th fret, go to 9th fret)
        B               A
And I know your pretty face get's far with guys..

     A
...enough to hid the lies       B


Chorus

         E                B

Are you sure that you're mine,

             A            B
aren't you dating other guys

          C#        B               A
Somebody saw, you sleep around the town..


Have fun with the tab
Comments