Busted - What I Go To School For Chords & Tabs

 

What I Go To School For Chords & Tabs

Busted Chords & Tabs

Version: 1 Type: Tab 0 ratings
1 star 2 stars 3 stars 4 stars 5 stars
comments

What I Go To School For Tab

##################################################################################
# This file is the author's own work and represents their interpretation of the  #
# song. You may only use this file for private study, scholarship, or research.  #
##################################################################################

Song:What I Go To School For
Album:I dunno
Band:Busted
Tabbed By:Matty C - geezer1987@hotmail.com

Opening x2 (Guitar 1)
e|---------------------------------------------------------------
b|---------------------------------------------------------------
g|---------------------------------------------------------------
d|---- e  c  h  o  ---e  c  h  o  -----e  c  h  o  --------------
a|--0-0-0-0-0-0-0-0--2-2-2-2-2-2-2-2--5-5-5-5-5-5-5-5------------
d|---------------------------------------------------------------

Opening second time only (Guitar 2) strum
e|---------------------------------------------------------------
b|---------------------------------------------------------------
g|--2----------------4-----------------7-------------------------
d|--2----------------4-----------------7-------------------------
a|--0----------------2-----------------5-------------------------
d|---------------------------------------------------------------


Verse x3
e|---------------------------------------------------------------------
b|---------------------------------------------------------------------
g|---------------------------------------------------------------------
d|---------------------------------------------------------------------
a|---0-0-0-0-0-0-0-0--7-7-7-7-7-7-7-7--4-4-4-4-4-4-4-4--5-5-5-5-5-5-5-5
d|---------------------------------------------------------------------
then play
e|---------------------------------------------------------------------
b|---------------------------------------------------------------------
g|-------------------------------------------------------7-7---7-7-----
d|-------------------------------------------------------7-7---7-7-----
a|---0-0-0-0-0-0-0-0--7-7-7-7-7-7-7-7--4-4-4-4-4-4-4-4---5-5---5-5-----
d|---------------------------------------------------------------------
Verse 1

Chorus: x2
e|------------------------------------------------------------------
b|------------------------------------------------------------------
g|-2-2-2-2-2-2-2-2-7-7-7-7-7-7-7-7-6-6-6-6-6-6-6-6-4-4-4-4-4-4-4-4--
d|-2-2-2-2-2-2-2-2-7-7-7-7-7-7-7-7-6-6-6-6-6-6-6-6-4-4-4-4-4-4-4-4--
a|-0-0-0-0-0-0-0-0-5-5-5-5-5-5-5-5-4-4-4-4-4-4-4-4-2-2-2-2-2-2-2-2--
d|------------------------------------------------------------------
then play
e|------------------------------------------------------------------
b|------------------------------------------------------------------
g|--7-7-7-7-7-7-7-7---9-9-9-----------------------------------------
d|--7-7-7-7-7-7-7-7---9-9-9-----------------------------------------
a|--5-5-5-5-5-5-5-5---7-7-7-----------------------------------------
d|------------------------------------------------------------------
Chorus:Lyrics
"School for, even though it is a real bore...."
[ Tab from: http://www.guitartabs.cc/tabs/b/busted/what_i_go_to_school_for_tab.html ]
e|---------------------------------------------------------------
b|---------------------------------------------------------------
g|---------------------------------------------------------------
d|---- ----------------------------------------------------------
a|--0-0-0-0-0-0-0-0--2-2-2-2-2-2-2-2--5-5-5-5-5-5-5-5------------
d|---------------------------------------------------------------


Verse2 x3
e|---------------------------------------------------------------------
b|---------------------------------------------------------------------
g|---------------------------------------------------------------------
d|---------------------------------------------------------------------
a|---0-0-0-0-0-0-0-0--7-7-7-7-7-7-7-7--4-4-4-4-4-4-4-4--5-5-5-5-5-5-5-5
d|---------------------------------------------------------------------
then play
e|---------------------------------------------------------------------
b|---------------------------------------------------------------------
g|-------------------------------------------------------7-7---7-7-----
d|-------------------------------------------------------7-7---7-7-----
a|---0-0-0-0-0-0-0-0--7-7-7-7-7-7-7-7--4-4-4-4-4-4-4-4---5-5---5-5-----
d|---------------------------------------------------------------------
Verse 2

I cant be arsed to tab out the next bit, just mess about with the power chords above and u will get it, its only really the drums.

Verse3 x1
e|---------------------------------------------------------------------
b|---------------------------------------------------------------------
g|---------------------------------------------------------------------
d|---------------------------------------------------------------------
a|---0-0-0-0-0-0-0-0--7-7-7-7-7-7-7-7--4-4-4-4-4-4-4-4--5-5-5-5-5-5-5-5
d|---------------------------------------------------------------------
then play
e|---------------------------------------------------------------------
b|---------------------------------------------------------------------
g|-------------------------------------------------------7-7---7-7-----
d|-------------------------------------------------------7-7---7-7-----
a|---0-0-0-0-0-0-0-0--7-7-7-7-7-7-7-7--4-4-4-4-4-4-4-4---5-5---5-5-----
d|---------------------------------------------------------------------
Verse 3:

Outro:x2
e|------------------------------------------------------------------
b|------------------------------------------------------------------
g|-2-2-2-2-2-2-2-2-7-7-7-7-7-7-7-7-6-6-6-6-6-6-6-6-4-4-4-4-4-4-4-4--
d|-2-2-2-2-2-2-2-2-7-7-7-7-7-7-7-7-6-6-6-6-6-6-6-6-4-4-4-4-4-4-4-4--
a|-0-0-0-0-0-0-0-0-5-5-5-5-5-5-5-5-4-4-4-4-4-4-4-4-2-2-2-2-2-2-2-2--
d|------------------------------------------------------------------
then
e|------------------------------------------------------------------
b|------------------------------------------------------------------
g|--7-----strum:9-strum:2-------------------------------------------
d|--7-----------9-------2-------------------------------------------
a|--5-----------7-------0-------------------------------------------
d|------------------------------------------------------------------
Comments