Busted - What I Go To School For Live Chords & Tabs

 

What I Go To School For Live Chords & Tabs

Busted Chords & Tabs

Version: 1 Type: Tab 0 ratings
1 star 2 stars 3 stars 4 stars 5 stars
comments

What I Go To School For Live Tab

   
Busted
What i go to school for Live

This is the live version of what i go to school for from the 'Busted'
album and can be found on the 'Sleeping with the light on' live single.
The main difference is the solo in the 3rd verse.

Intro/fill after 1st chorus:
e---------------------------------|
b---------------------------------|
g-------------------------7-7-7-7-|  X2/X1 for fill
d-7-7-7-7-7-7-7-7-9-9-9-9-7-7-7-7-|
a-7-7-7-7-7-7-7-7-9-9-9-9-5-5-5-5-|
e-5-5-5-5-5-5-5-5-7-7-7-7---------|

verses:
e----------------------------------------------------------------------|
b----------------------------------------------------------------------|
g----------------------------------------------------------------------|
d-----------------9-9-9-9-9-9-9-9-----------------7-7-7-7-7---7--------|     X3
a-7-7-7-7-7-7-7-7-7-7-7-7-7-7-7-7-4-4-4-4-4-4-4-4-5-5-5-5-5-4-5-4------|
e-5-5-5-5-5-5-5-5-----------------2-2-2-2-2-2-2-2----------------------|

then
e----------------------------------------------------------------|
b----------------------------------------------------------------|
g----------------------------------------------------------------|
d-----------------9-9-9-9-9-9-9-9-----------------7---7-7--7-7---|
a-7-7-7-7-7-7-7-7-7-7-7-7-7-7-7-7-4-4-4-4-4-4-4-4-5---5-5--5-5---|
e-5-5-5-5-5-5-5-5-----------------2-2-2-2-2-2-2-2----------------|

chorus:

e-------------------------------------------------------------------|
b-------------------------------------------------------------------|
g-----------------7-7-7-7-7-7-7-7-----------------------------------|
d-7-7-7-7-7-7-7-7-7-7-7-7-7-7-7-7--4-4-4-4-4-4-4-4-2-2-2-2-2-2-2-2--| X2
a-7-7-7-7-7-7-7-7-5-5-5-5-5-5-5-5--4-4-4-4-4-4-4-4-2-2-2-2-2-2-2-2--|
e-5-5-5-5-5-5-5-5----------------2-2-2-2-2-2-2-2-2-0-0-0-0-0-0-0-0--|
[ Tab from: http://www.guitartabs.cc/tabs/b/busted/what_i_go_to_school_for_live_tab.html ]
then
e-----------------------|
b-----------------------|
g-----------------------|
d-7-7-7-7-7-7-7-7-2-2-2-|
a-5-5-5-5-5-5-5-5-2-2-2-|
e-----------------------|
fill

verse(so she maybe 33...........)

chorus

bridge:
 F#M            E           d       d   E
e-2-------------------------5-------5---7----------------|
b-2-------------------------7-------7---9----------------|
g-2-------------1-----------7-------7---9 whole section--| X2
d-4-------------2-----------7-------7---9----------------|
a-4-------------2-----------5-------5---7----------------|
e-2-------------0-----------5-------5---7----------------|

then
 F#M            E           d
e-2-------------------------5-------|
b-2-------------------------7-------|
g-2-------------1-----------7-------| D X 10
d-4-------------2-----------7-------|
a-4-------------2-----------5-------|
e-2-------------0-----------5-------|

verse(she's packed her bag....)light distortion
e--------------------------------------------/
b-4-4-4-4-2-0-2-0--4-4-4-4-2-0--2-0---0-0-2-2/
g--------------------------------------------/
d--------------------------------------------/
a--------------------------------------------/
e--------------------------------------------/

then(we drive past school....)

e-----------------------------------0-0------|
b-4-4-4-4-2-0-2-0--4-4-4-4-2-0--2-0-5-5------|
g--------------------------------------------|
d--------------------------------------------|
a--------------------------------------------|
e--------------------------------------------|

chorus

Outro:
          E   A5
e---------7-------|
b---------9-------|
g-2-------9---7lr-|
d---------9---7lr-|
a-2-------7---7lr-|
e---------7---5lr-|

The solo is really fun to play.Have fun!
Comments