Busted - Thunderbirds Are Go Chords & Tabs

 

Thunderbirds Are Go Chords & Tabs

Busted Chords & Tabs

Version: 3 Type: Tab 0 ratings
1 star 2 stars 3 stars 4 stars 5 stars
comments

Thunderbirds Are Go Tab

intro: guitar 1.......i think

E:------------------------------------------------------|
B:-------------------------7--7--0--7--9----------------|
G:--4--0---4--6---0--4--6-----------------6-------------|
D:------------------------------------------------------| (X 2)
A:------------------------------------------------------|
E:------------------------------------------------------|

Rythem: guitar 2 (main part of song)
spring brakes come around and theres no hero's to be found.......

E:------------------------------------------------------|
B:------------888888888---------------------------------|
G:------------888888888---------------------------------|
D:-999999999--666666666-444444444---2222---5555---------|
A:-999999999------------444444444---2222---5555---------|
E:-777777777------------222222222---0000---3333---------|

chorus: guitars
dont be mad please stop the hating just be glad that they'll be waiting

E:-----------------------------------------------------|
B:-----------------------------------------------------|
G:-----------------------------------------------------|
D:-999999999--666666666--444444444--2222--55--77-------|
A:-999999999--666666666--444444444--2222--55--77-------|
E:-777777777--444444444--222222222--0000--33--55-------|

solo: this gets played while the rythem is still being played
[ Tab from: http://www.guitartabs.cc/tabs/b/busted/thunderbirds_are_go_tab_ver_3.html ]
E:------------------------------------------------------|     T
B:-------------------------7--7--0--7--9----------------|
G:--4--0---4--6---0--4--6-----------------6-------------|     i
D:------------------------------------------------------|
A:------------------------------------------------------|     m
E:------------------------------------------------------|

E:------------------------------------------------------|     e
B:------------------------------------------------------|
G:--4--0--4--7--0--4--7--6------------------------------|     s
D:------------------------------------------------------|
A:------------------------------------------------------|
E:------------------------------------------------------|

E:------------------------------------------------------|     t
B:-------------------------7--7--0--7--9----------------|
G:--4--0---4--6---0--4--6-----------------6-------------|
D:------------------------------------------------------|
A:------------------------------------------------------|     w
E:------------------------------------------------------|

E:------------------------------------------------------|
B:------------------------------------------------------|
G:--4--0--4--7--0--4--7---9-----------------------------|     o
D:------------------------------------------------------|
A:------------------------------------------------------|
E:------------------------------------------------------|

   boys are back in town part


E:-----------------------------------------------------|
B:-----------------------------------------------------|
G:-----------------------------------------------------|
D:-99999--66666--444444444--2222--55--77---------------|
A:-99999--66666--444444444--2222--55--77---------------|
E:-77777--44444--222222222--0000--33--55---------------|

I know there may be a few odd bits in it but its the best  i could figure out
Comments