Busted - Teenage Kicks Chords & Tabs

 

Teenage Kicks Chords & Tabs

Busted Chords & Tabs

Version: 3 Type: Tab 0 ratings
1 star 2 stars 3 stars 4 stars 5 stars
comments

Teenage Kicks Tab

   
Standard tuning (E,B,G,D,A,E)
Played with distortion!

INTRO
E|-----------------------------------------------|
B|-----------------------------------------------|
G|-----------------------------------------------| X2
D|-------12-12------------------12-12------------|
A|------------------12-12-------------------12---|
E|-10-10-------10-10------10-10-------10-10------|
   ^
   |
E|------|
B|------|
G|------|
D|--12--|
A|--12--|
E|--10--|
Play that chord were the arrow points!
_____________________________________
VERSE
E|-----------------------------------------------------------------|
B|-----------------------------------------------------------------|
G|-----------------------------------------------------------------|
D|-12-12-12-12-12-12-12-12-12-12-12-12-12-12-12-\-11-\-9-9-9-9-9-9-|
A|-12-12-12-12-12-12-12-12-12-12-12-12-12-12-12-\-11-\-9-9-9-9-9-9-|
E|-10-10-10-10-10-10-10-10-10-10-10-10-10-10-10-\-9- \-7-7-7-7-7-7-|


 -----------------------------------------------------------------|
 -----------------------------------------------------------------|
 -----------------------------------------------------------------|
 -9-9-9-9-9-9-9-9-9-/11-12-12-12-12-12-12-12-12-12-12-12-12-12-12-|
 -9-9-9-9-9-9-9-9-9-/11-12-12-12-12-12-12-12-12-12-12-12-12-12-12-|
 -7-7-7-7-7-7-7-7-7-/9--10-10-10-10-10-10-10-10-10-10-10-10-10-10-|

[ Tab from: http://www.guitartabs.cc/tabs/b/busted/teenage_kicks_tab_ver_3.html ]
 ----------------------------------|
 ----------------------------------|
 ----------------------------------|
 11\9-9-9-9-9-9-9-9-9-9-9-9-9-9-9--|
 11\9-9-9-9-9-9-9-9-9-9-9-9-9-9-9--|
 9\7-7-7-7-7-7-7-7-7-7-7-7-7-7-7---|
_________________________________________

CHORUS
E|----------------------------------------------------------------|
B|----------------------------------------------------------------|
G|----------------------------------------------------------------|
D|12-12-12-12-12-12-12-12-12-12-12-12-12-12-12--10-\9-9-9-9-9-9---|
A|-12-12-12-12-12-12-12-12-12-12-12-12-12-12-12--10-\9-9-9-9-9-9--|
E|-10-10-10-10-10-10-10-10-10-10-10-10-10-10-10--8--\7-7-7-7-7-7--|


 ----------------------------------------------------------------------|
 ----------------------------------------------------------------------|
 ----------------------------------------------------------------------|
 9-9-9-9-9-9-9-9-9-\-6-\5-5-5-5-5-5-5-5-5-5-5-5-6-/7-7-7-7-7-7-7-7-7-7-|
 9-9-9-9-9-9-9-9-9-\-6-\5-5-5-5-5-5-5-5-5-5-5-5-6-/7-7-7-7-7-7-7-7-7-7-|
 7-7-7-7-7-7-7-7-7-\-4-\3-3-3-3-3-3-3-3-3-3-5-5-4-/5-5-5-5-5-5-5-5-5-5-|
___________________________________________________

SOLO
E|-----------------------------------------------------------|
B|-----------------------------------------------------------|
G|-10----12^^^-107---9^^^--10----12^^^-10-7---9^^^---7~-----|
D|-----------------------------------------------------------|
A|-----------------------------------------------------------|
E|-----------------------------------------------------------|

___________________________________________________
Play this part fast!!!
OUTRO
E|----------------------|
B|----------------------|
G|----------------------|
D|--12-5-7-7-7-12-------|
A|--10-5-7-7-7-10-------|
E|--10-3-5-5-5-10-------|


That's the whole song tabbed for you!!!
This is a brill song so have fun!
Tabbed by Leon Jenkins!
Comments