Busted - She Wants To Be Me Chords & Tabs

 

She Wants To Be Me Chords & Tabs

Busted Chords & Tabs

Version: 2 Type: Tab 0 ratings
1 star 2 stars 3 stars 4 stars 5 stars
comments

She Wants To Be Me Tab

----------------------------------------------------------------------------
		    she wants to be me (solos) - busted
----------------------------------------------------------------------------
Tabbed by: me
Email: lets_rewind@hotmail.com

Tuning: standard

intro:
(also played after bridge #"can I get his autograph?")
e|-------------------------------------------------------------------------|
B|-4-2-0-4-2-0-2---4-2-0-5-4-2-4-0-4-2-0-5-4-0-5-4-0---0-------------------|
G|---------------1-----------------------------------2---------------------|
D|-------------------------------------------------------------------------|
A|-------------------------------------------------------------------------|
E|-------------------------------------------------------------------------|
[ Tab from: http://www.guitartabs.cc/tabs/b/busted/she_wants_to_be_me_tab_ver_2.html ]
played on #"she looks like, does like, sounds like me, she's stealing my identity...and I'm begging you"
e|-4-2-4-2-4-2-4---4-2-4-2-4-5-4-2-----------------------------------------|
B|---------------1---------------------------------------------------------|
G|-------------------------------------------------------------------------|
D|-------------------------------------------------------------------------|
A|-------------------------------------------------------------------------|
E|-------------------------------------------------------------------------|

I'm not too sure about this bit, but it's played after the first chorus:
e|-6-5-1-6-5-1-8-6-5-1-6-5-1---1-------------------------------------------|
B|---------------------------3---------------------------------------------|
G|-------------------------------------------------------------------------|
D|-------------------------------------------------------------------------|
A|-------------------------------------------------------------------------|
E|-------------------------------------------------------------------------|

N.B these tabs probably aren't as accurate as I'd like them to be but give me
a break, I'm a tab virgin. For all Busted lyrics check out http://groups.msn.com/bustedaddict and have fun!
Comments