Busted - Meet You There Chords & Tabs

 

Meet You There Chords & Tabs

Busted Chords & Tabs

Version: 2 Type: Tab 0 ratings
1 star 2 stars 3 stars 4 stars 5 stars
comments

Meet You There Tab

   
-------------------------------------------------------------------------------
			     Meet You There - Busted
-------------------------------------------------------------------------------
Tabbed by: Sam Palmer
Email: theonesampalmer@hotmail.com

Tuning: Standard tuning with capo on first fret (read tab as normal but alter 
finger places, so G would be 4 in stead of 3 and 3 instead of 2, if you get my 
drift)

Chords used are G, Em, C, D

Intro (single slow downwards strum on each followed by a quicker upwards strum, 
D at end of first set only has slow downwards strum, then strumming pattern on 
the second set)

e|----3----0------------------3----0-----------------------------------------|
B|----2----2----3-------------2----2----3------------------------------------|
G|----0----2----2----0--------0----2----2----0-------------------------------|
D|----0----0----0----2--------0----0----0----2-------------------------------|
A|----0----0----1----3--------0----0----1----3-------------------------------|
E|----3----0----0----2--------3----0----0----2-------------------------------|

Verse 1

e|----3----0------------------3----0-----------------------------------------|
B|----2----2----3-------------2----2----3------------------------------------|
G|----0----2----2----0--------0----2----2----0-------------------------------|
D|----0----0----0----2--------0----0----0----2-------------------------------|
A|----0----0----1----3--------0----0----1----3-------------------------------|
E|----3----0----0----2--------3----0----0----2-------------------------------|

Bridge

e|----0---------3------------------------------------------------------------|
B|----2----3----2------------------------------------------------------------|
G|----2----2----0----0-------------------------------------------------------|
D|----0----0----0----2-------------------------------------------------------|
A|----0----1----0----3-------------------------------------------------------|
E|----0----0----3----2-------------------------------------------------------|

Chorus (slightly different strumming pattern but can be played like the rest of 
the song - end D and C only have single strums)

e|----3----0------------------3----0-----------------------------------------|
B|----2----2---------3--------2----2---------3-------------------------------|
G|----0----2----0----2--------0----2----0----2-------------------------------|
D|----0----0----2----0--------0----0----2----0-------------------------------|
A|----0----0----3----1--------0----0----3----1-------------------------------|
E|----3----0----2----0--------3----0----2----0-------------------------------|

Break
[ Tab from: http://www.guitartabs.cc/tabs/b/busted/meet_you_there_tab_ver_2.html ]
e|----3----0-----------------------------------------------------------------|
B|----2----2----3------------------------------------------------------------|
G|----0----2----2----0-------------------------------------------------------|
D|----0----0----0----2-------------------------------------------------------|
A|----0----0----1----3-------------------------------------------------------|
E|----3----0----0----2-------------------------------------------------------|

Verse

e|----3----0------------------3----0-----------------------------------------|
B|----2----2----3-------------2----2----3------------------------------------|
G|----0----2----2----0--------0----2----2----0-------------------------------|
D|----0----0----0----2--------0----0----0----2-------------------------------|
A|----0----0----1----3--------0----0----1----3-------------------------------|
E|----3----0----0----2--------3----0----0----2-------------------------------|

Bridge (single strum on the last D)

e|----0---------3------------------------------------------------------------|
B|----2----3----2------------------------------------------------------------|
G|----2----2----0----0-------------------------------------------------------|
D|----0----0----0----2-------------------------------------------------------|
A|----0----1----0----3-------------------------------------------------------|
E|----0----0----3----2-------------------------------------------------------|

Chorus

e|----3----0------------------3----0-----------------------------------------|
B|----2----2---------3--------2----2---------3-------------------------------|
G|----0----2----0----2--------0----2----0----2-------------------------------|
D|----0----0----2----0--------0----0----2----0-------------------------------|
A|----0----0----3----1--------0----0----3----1-------------------------------|
E|----3----0----2----0--------3----0----2----0-------------------------------|

Break (play this break 3 times)

e|----3----0-----------------------------------------------------------------|
B|----2----2----3------------------------------------------------------------|
G|----0----2----2----0-------------------------------------------------------|
D|----0----0----0----2-------------------------------------------------------|
A|----0----0----1----3-------------------------------------------------------|
E|----3----0----0----2-------------------------------------------------------|

Chorus

e|----3----0------------------3----0-----------------------------------------|
B|----2----2---------3--------2----2---------3-------------------------------|
G|----0----2----0----2--------0----2----0----2-------------------------------|
D|----0----0----2----0--------0----0----2----0-------------------------------|
A|----0----0----3----1--------0----0----3----1-------------------------------|
E|----3----0----2----0--------3----0----2----0-------------------------------|

Outro Rift - contains C being played slowly, down strum, up strum, down strum, a 
brief break, single down strum, then down up down.

Any comments or corrections, I'll be happy to hear from people.
Comments