Business - Spirit Of The Streets Chords & Tabs

 

Spirit Of The Streets Chords & Tabs

Business Chords & Tabs

Version: 2 Type: Bass Tab 0 ratings
1 star 2 stars 3 stars 4 stars 5 stars
comments

Spirit Of The Streets Bass Tab

   
SPIRIT OF THE STREETS
=====================
by: The Business (off the Hellcat Records Compilation)

tab by: Adam Mihlfried (adamm@psu.edu)

{Intro}

G -----------
D -----------	x 'many' (fairly spaced apart, mute after #1, let #2, #3, #4 ring, then
A -----------		play #5 and on faster)
E 5----------

{Main Part/Chorus - played through most of song}

G -------------
D ------------- 	Part A
A ---4-----5-0-		x4
E -5---5-5-----

{Verse}

G -----------------
D -----------------	Part B
A -7-7-7-7-7-7-7/9-	x3
E -----------------

G -----------------
D -----------------	Part C
A -7-7-7-7-7-5-44--	x1
E ----------------2

(Part A)		x4
[ Tab from: http://www.guitartabs.cc/tabs/b/business/spirit_of_the_streets_btab_ver_2.html ]
(Part B)		x3
(Part C)		x1

(Part A)		x4

{Interlude?}

G --------------------------------------
D --------------------------------------	Part D
A ---------5-5-5-5----------------------	x3
E -2-2-2-2---------3/5-5-5-5-3/5-5-5-5--

G --------------------------------------
D --------------------------------------	Part E
A ---------5-5-5-5---------7777---------	x1
E -2-2-2-2---------5-5-5-5--------------

{Break-Down}
(Part A-slower)		x8

{Speed Up}
(Part A -normal)	x4

End..

===========================
Thanks 2nd tab written....check out Spring Heel Jack's Peg Leg Bates for my other.
Email me with comments, adamm@psu.edu
Thanks,
Adam

Comments