Bush - Warm Machine Chords & Tabs

 

Warm Machine Chords & Tabs

Bush Chords & Tabs

Version: 1 Type: Tab 0 ratings
1 star 2 stars 3 stars 4 stars 5 stars
comments

Warm Machine Tab

   
Bush - Warm Machine [ guitare@mail.com | andromediae@hotmail.com ]
(Normal Tuning)


Intro
(Gtr 1)
e||--0--0--0-0--0--0---0--0--0--0--0-0-0--||
B||--6--6--6-5--5--5--10-10-10-10-10-8-8--||
G||--5--5--5-4--4--4---9--9--9--9--9-7-7--||
D||--0--0--0-0--0--0---0--0--0--0--0-0-0--||
A||---------------------------------------||
E||---------------------------------------||

(Gtr. 2)
e||---------------------||
B||---------------------||
G||---------------------||
D||--3----2-----7----5--||
A||--3----2-----7----5--||
E||--1----0-----5----3--||

[ Tab from: http://www.guitartabs.cc/tabs/b/bush/warm_machine_tab.html ]
Verse
(Gtr 1)
e||--0--0--0-0-|-0--0--0-0--0--0---0--0--0--0--0-0-0--||
B||--6--6--6-5-|-6--6--6-5--5--5--10-10-10-10-10-8-8--||
G||--5--5--5-4-|-5--5--5-4--4--4---9--9--9--9--9-7-7--||
D||--0--0--0-0-|-0--0--0-0--0--0---0--0--0--0--0-0-0--||
A||------------|--------------------------------------||
E||------------|--------------------------------------||

(Gtr. 2)
e||---------------------||
B||---------------------||
G||---------------------||
D||--3----2-----7----5--||
A||--3----2-----7----5--||
E||--1----0-----5----3--||


Chorus
e||---------------------------------------------||
B||---------------------------------------------||
G||---------------------------------------------||
D||--7-7-7-7-7-x-x-3-3-3-3-3-x-x--5--3-3-3-3-3--||
A||--7-7-7-7-7-x-x-3-3-3-3-3-x-x--5--3-3-3-3-3--||
E||--5-5-5-5-5-x-x-1-1-1-0-1-x-x--3--1-1-1-0-1--||


Bridge (Chords only)
e||--------------||
B||--------------||
G||--------------||
D||--5---7---10--||
A||--5---7---10--||
E||--3---5----8--||


Outro (Chords only)
G5, A5
Comments