Bush - The People That We Love Chords & Tabs

 

The People That We Love Chords & Tabs

Bush Chords & Tabs

Version: 1 Type: Tab 0 ratings
1 star 2 stars 3 stars 4 stars 5 stars
comments

The People That We Love Tab

#----------------------------------PLEASE NOTE--------------------------------#
#This file is the author's own work and represents their interpretation of the#
#song. You may only use this file for private study, scholarship, or research.#
#-----------------------------------------------------------------------------#
#-- File created with Instab - http://www.pconline.com/~smcarey/instab.html --#
#-----------------------------------------------------------------------------#

Author/Artist: Bush
Title: The People That We Love/Speed Kills
Album: Golden State
Transcribed by: Crank Raven
Email: starsucker_inc@gmx.de

These are the riffs from Bush's "The People that we love" or "Speed Kills" as it
first was to be called.
The guitars are regular tuned.
I think it's really close to what they play, so buy the CD and learn playing it
It's a pretty easy song by Bush

------------------------------------------------------------------------------
------------------------------------------------------------------------------
------------------------------------------------------------------------------
---------------5-5-5-5--------------------------------------------------------
-7-7-7-2-2-2-2-3-3-3-3-5-5-5-7------------------------------------------------
-5-5-5-0-0-0-0---------3-3-3-5------------------------------------------------
                                                                              

------------------------------------------------------------------------------
------------------------------------------------------------------------------
------------------------------------------------------------------------------
------------------------------------------------------------------------------
---------------3-3-3-3--------------------------------------------------------
-5-5-5-0-0-0-0---------3-3-3-5------------------------------------------------
                                                                              
[ Tab from: http://www.guitartabs.cc/tabs/b/bush/the_people_that_we_love_tab.html ]
------------------------------------------------------------------------------
------------------------------------------------------------------------------
------------------------------------------------------------------------------
------------------------------------------------------------------------------
------------------------------------------------------------------------------
-1-1-1-1-1-1-1-1-1-1-1-1-1-1-1-1-5-5-5-5-5-5-5-5-5-5-5-5-5-5-5-5-1-1-1-1-1-1--
                                                                              

------------------------------------------------------------------------------
------------------------------------------------------------------------------
------------------------------------------------------------------------------
------------------------------------------------------------------------------
---------------------3-3-3-3-3-3-3-3------------------------------------------
-1-1-1-1-1-1-1-1-1-1-----------------3-3-3-3-3-3-3-3--------------------------
                                                                              

------------------------------------------------------------------------------
------------------------------------------------------------------------------
------------------------------------------------------------------------------
------------------------------------------------------------------------------
------------------------------------------------------------------------------
-1-1-1-1-1-1-1-1-1-1-1-1-1-1-1-1-5-5-5-5-5-5-5-5-5-5-5-5-5-5-5-5-1-1-1-1-1-1--
                                                                              

------------------------------------------------------------------------------
------------------------------------------------------------------------------
------------------------------------------------------------------------------
---------------------5-5-5-5-5-5-5-5------------------------------------------
---------------------3-3-3-3-3-3-3-3-5-5-5-5-5-5-5-5--------------------------
-1-1-1-1-1-1-1-1-1-1-----------------3-3-3-3-3-3-3-3--------------------------
                                                                              

------------------------------------------------------------------------------
------------------------------------------------------------------------------
------------------------------------------------------------------------------
------------------------------------------------------------------------------
---------3-----------------------3-----------------------3--------------------
-5---0-------3---5-0x----5---0-------3---5-0x----5---0------------------------
                                                                              

Comments