Bush - The Chemicals Between Us Chords & Tabs

 

The Chemicals Between Us Chords & Tabs

Bush Chords & Tabs

Version: 1 Type: Tab 0 ratings
1 star 2 stars 3 stars 4 stars 5 stars
comments

The Chemicals Between Us Tab

   
b-bend 
r-release 
h-hammer-on 
\-slide down
/-slide up
 standard tuning
  Gavin
   --------------------------------------------------------
   --------------------------------------------------------
   ---4-4-----------7-7---------------------------------
   ------------------------------------------------------- 
   ---2-2-----------5-5---------------------------------
   --------------------------------------------------------
   
		play this after the 3 of Gavin's 
	     first fill and  then afeter every 4 times
   --------------------------------------------------------
   --------------------------------------------------------
   ---4-4----8-8\4-4/7-7-7-7-8-----------------------------
   --------------------------------------------------------
   ---2-2----6-6\2-2/5-5-5-5-6-----------------------------
   --------------------------------------------------------  
   
Nigel
   --------------------------------------------------------
   --------------------------------------------------------
   -----------------------8b9r8 let ring-------------------
   --------------------------------------------------------
   --------------------------------------------------------
   --------------------------------------------------------  
  
 chorus use random picking and let ring
   --------------------------------3-3-3-3---------------------
   --------------------------------3-3-3-3---------------------
   ---14-14-14-14-14-14---4-4-4-4--0-0-0-0--14-14-14-14-------- 
   ---14-14-14-14-14-14---5-5-5-5-----------14-14-14-14--------
   ---12-12-12-12-12-12---3-3-3-3-----------12-12-12-12--------
   ------------------------------------------------------------

   Nigel
   ------------------------------------------------------------
   --10-10-10-10-10-10---12-12-12-12--8-8-8-8-10-10-10-10------
   ---9--9--9--9--9--9---12-12-12-12--7-7-7-7--9--9--9--9------ 
   ---7--7--7--7--7--7---10-10-10-10--5-5-5-5--7--7--7--7------
   ------------------------------------------------------------
   ------------------------------------------------------------
  
 Nigel (fill on 2nd last chorus)  
   --------------------------------
   ---8b9h10---8h10--10-10---------
   -------------------------------- 
   --------------------------------
   --------------------------------
   --------------------------------
   Gavin's bridge (one time)   in middle of song pick
		 each seperately but let ring
   -------------------------------------3---3--------------------
   -----------------------------------3---3---3-------14----14---
   ---14----14----14--------4---4---0--------------14----14----14
   ------14----14----14---5---5---5-------------12---------------
   ---------------------3----------------------------------------
   --------------------------------------------------------------
then just repeat the chorus a few times
[ Tab from: http://www.guitartabs.cc/tabs/b/bush/the_chemicals_between_us_tab.html ]
Comments