Bush - Synapse Chords & Tabs

 

Synapse Chords & Tabs

Bush Chords & Tabs

Version: 1 Type: Tab 0 ratings
1 star 2 stars 3 stars 4 stars 5 stars
comments

Synapse Tab

   
#-----------------------------------------------------------------------------#
#-- File created with Instab - http://www.pconline.com/~smcarey/instab.html --#
#-----------------------------------------------------------------------------#

Author/Artist: Bush
Title: synapse
Transcribed by: Saverain
Email: saverain@hotmail.com

This is what it sounds like to me and if you don't
 like it
E-mail me
you'll have to find the lyrics somewhere else sorry.
 I are not to good words
Two guitars arranged for 1
v strum down
^ strum up

-|---------------------------|----|-------------------------------------------
-|---------------------------|----|-------------------------------------------
-|-----2---------------------|----|-----2---4-2--------------------8-8-5-8-8--
-|-3-3-3-3-3-3--7-7-7--7-7-7-|-2x-|-3-3---3-----3-2--7-7-7--7-7-7-------------
-|-3-3-3-3-3-3--7-7-7--7-7-7-|----|-3----------------7-7-7--7-7-7-------------
-|-1-1-1-1-1-1--5-5----5-5-5-|----|-1----------------5-5-5--5-5-5-------------
 intro v v v v  v v v  v v v    verse>                                        

------------|------------------|----------------------------------------------
------------|------------------|----------------------------------------------
-8-10-------|------------------|-----------2---4-2----------------------------
---10-------|-3-3-3-3-3-3--7---|-------3-3---3-----3-2-----------3-3-3-3-3-3--
------------|-3-3-3-3-3-3--7---|-------3-------------------------3-3-3-3-3-3--
------------|-1-1-1-1-1-1--5-5-|-------1---------------5-5-------1-1-1-1-1-1--
       main part of verse^                                                    

----------------------------------------------------------------------------|-
----------------------------------------------------------------------------|-
------------------2---4-2--------5--4--5--8----8-8--8----8-10---------------|-
--3-----------3-3---3-----3-2--2------------10---10---10-------7-7-7--7-7-7-|-
--7-7---------3------------------------------------------------7-7-7--7-7-7-|-
--5-5---------1------------------------------------------------5-5-5--5-5-5-|-
                                                                              
[ Tab from: http://www.guitartabs.cc/tabs/b/bush/synapse_tab.html ]
-|---------------------------|----|--------------------------------|----------
-|---------------------------|----|-5------------------------------|----------
-|---------------------------|----|-5------------------------------|-2--2--2--
-|-3-3-3-3-3-3--7-7-7--7-7-7-|-3x-|---3-2--------7------------7----|-3--3--3--
-|-3-3-3-3-3-3--7-7-7--7-7-7-|----|---3-3-3-0-0--7--7-7-7-7-7-7-3--|-3--3--3--
-|-1-1-1-1-1-1--5-5-5--5-5-5-|----|---1-1--------5--5-5-5-5-5------|-1--1--1--
                                                         chorus>     v  v  v  

----------------------------|-----------------------------------------|-------
------------2--2-2----2-----|-----------------------------------------|-------
--2--2/4\2--2--2-2--2-2-2---|-----------------------------------------|-1-1---
--3------0--2--2-2--2---2-2-|-10-10-10-10-10-10-10-10-7-7-7-7-7-7-7-7-|-2---2-
--3---------0----0--0-------|-10-10-10-10-10-10-10-10-7-7-7-7-7-7-7-7-|-2-----
--1-------------------------|-8--8--8--8--8--8--8--8--5-5-5-5-5-5-5-5-|-0-----
  v  v   ^  v  ^ v  v ^ v ^   interlude                                       

--------|---------------------|--------------------|------------|--------|----
-----1--|---------------------|--------------------|------------|--------|----
---2----|---------------------|--------------------|------------|--------|----
-2------|---------------------|--------------------|------------|--------|----
--------|---------------------|--------------------|------------|--------|----
--------|---------------------|--------------------|------------|--------|----
 harmonics<      intro           main part of verse   intro        chorus     

-|--------|-------|----------|-----------|---|-------|------------------------
-|--------|-------|----------|------5----|---|-------|------------------------
-|--------|-1-----|----------|-2----6----|---|-2-----|------------------------
-|--------|-2-32x-|----------|-3----7----|---|-3-----|------------------------
-|--------|-2-----|----------|-3-8x-7-8x-|2x-|-3-32x-|------------------------
-|--------|-0-----|----------|-1----5----|---|-1-----|------------------------
  interlude         chorus    outro                                           

Comments